Oops, an error
Loading. Please wait.

Arde En Mí Tab

version 2
version 2

Whole song

28 views 1 this week
no commentswrite comment
1 2 3 4 5
3 more votes to show rating
add to favorites
launch autoscroll
font size
0
reset
how to read this tab
guitar tuner
×
Best way to learn
"Arde En Mí"
Autoscroll
slow
fast
+/-
esc
set tempo
stop
INTRO:X2
  Em   D/E    Em     Bm/E Gmaj7 Em/A D/A Em/A   Bm  Gmaj7
E-0----0------0--------0-----------------------------------
A-------------------------------0----0---0-------0---------
D---9----7---------5---4-4------9----7-------5---4--4------
G---X----X-------4-----X---0----X----X-----4-----0----0----
B---8----7----5--------3-----3--8----7---5-------3-------3-
e----------------------------------------------------------
ESTA INTRO LA HACEN 2 VECES AL FINAL DE LA INTRO SOLAMENTE
HACEN EL ARMONICO CON EL DEDO MEÑIQUE MAS O MENOS
EN EL TRASTE 7 POR QUE SE QUEDAN EN Cmaj7/A
LAS ESTROFAS VAN IGUAL CON ESE MISMO TAB

Em   D/E   Em
EL BRILLO DE TU ROSTRO
Am      Asus2    Gmaj7
ALUMBRA MI OSCURIDAD
Em   D/E   Em
TE ACUERDAS QUE SOY POLVO
Am      Asus2    Gmaj7
Y ME VUELVES A INSPIRAR

Cmaj             B7            Em7      C#m7_B5 Ebm7_B5
    ME ACERCO ANTE EL TRONO EN MI DEBILIDAD    [SLIDE]
Cmaj7
ERES FUERTE
       D      Cmaj7_b5/D
ERES FUERTE

CORO:
G
TU VIENTO SOPLA
Em7
COMO UN ESTRUENDO
Cadd9             G/B
AVIVA HOY EL FUEGO
 Am7       D
AVIVAME SEÑOR
G
TU FUEGO QUEMA
Em7      E7       Am7
ARDE EN MI ESPIRITU
C/Eb7
RADIANTE


ESTOY TAN LISTO ESTOY DISPUESTO MI JESÚS

MI CORAZON TE OFREZCO NADIE ES COMO TU
Cmaj              B7            Em7      C#m7_B5 Ebm7_B5
    ME ACERCO ANTE EL TRONO EN MI DEBILIDAD    [SLIDE]
Cmaj7
ERES FUERTE
       D      Cmaj7_b5/D
ERES FUERTE

REPITE CORO: X 2VECES

C/A              Cmaj7
   ARDE EN MI SEÑOR  ARDE EN MI SEÑOR
C/A              Cmaj7               B7
   ARDE EN MI SEÑOR  ARDE EN MI SEÑOR
C/A              Cmaj7
   ARDE EN MI SEÑOR  ARDE EN MI SEÑOR
C/A             Cmaj7               B7
ARDE EN MI SEÑOR  ARDE EN MI SEÑOR
C/A              Cmaj7
ARDE EN MI SEÑOR  ARDE EN MI
C/A              Cmaj7              B7
ARDE EN MI SEÑOR  ARDE EN MI SEÑOR

PAUSA: (ARPEGGIO 1a ESTROFA)
G
//TU VIENTO SOPLA
Em7
COMO UN ESTRUENDO
Cadd9             G/B
AVIVA HOY EL FUEGO
Am7       D   Cmaj7_b5/D
AVIVAME SEÑOR
G
TU FUEGO QUEMA
Em7      E7       Am7
ARDE EN MI ESPIRITU
C/Eb7
RADIANTE//

AQUÍ LES EXPLICO EL LIGADO QUE VA EN EL PEDAZO DE
?ME ACERCO ANTE EL TRONO EN MI DEBILIDAD
   C#m7_B5 Eb7_B5 C#m7_B5
E----------------------------------------------------------
A---4------6------4----------------------------------------
D---5------7------5----------------------------------------
G---4------6------4----------------------------------------
B---5------7------5----------------------------------------
e----------------------------------------------------------
Suggest correction
Give kudos to tab author, rate the tab!
1 2 3 4 5
comments
print report bad tab
guest
You may want to rate the tab now too:
select rating
Wanna post a correction for this tab? Suggest correction