Oops, an error
Loading. Please wait.

Avívanos Tab

version 1
version 1

Whole song

Interactive

119 views 1 this week
no commentswrite comment
1 2 3 4 5
3 more votes to show rating
add to favorites
×
Save as Personal and add changes to this tab that will be seen only by you. Learn more ›
×
You can save this tab as Personal to edit and correct it or add notes. All changes will be seen only by you. Learn more »
save as personal
new!
launch autoscroll
font size
0
reset
how to read this tab
guitar tuner
Autoscroll
slow
fast
+/-
esc
set tempo
stop
Author
Unregistered
AVIVANOS

INTRO: Em F#m G   D Em F#m

0:24
e|--7-7-7-7-7-7-10-12-7-7-7-7-7-7-10-12-----------------------------
B|-------------------------------------10-10-10-10-10-10-8-8-7-7-7-7
G|------------------------------------------------------------------
D|------------------------------------------------------------------
A|------------------------------------------------------------------
E|------------------------------------------------------------------

e|--7-7-7-7-7-7-10-12-7-7-7-7-7-7-10-12-----------------------------
B|--------------------------------------10-10-10-10-10-10-8-8-7----5
G|------------------------------------------------------------------
D|------------------------------------------------------------------
A|------------------------------------------------------------------
E|------------------------------------------------------------------


Em              F#m      G
   Que tu reino se establesca en mi
e|-------------------------------------10---------------------------
B|----------------------------------------10------------------------
G|------------------------------------------------------------------
D|------------------------------------------------------------------
A|------------------------------------------------------------------
E|------------------------------------------------------------------


                    D                    Em   F#m
                       Que en mi vida resplandescas tu
e|---------------------------10-------------------------------------
B|------------------------------7---------------------------------12
G|------------------------------------------------------------------
D|------------------------------------------------------------------
A|------------------------------------------------------------------
E|------------------------------------------------------------------


Em         F#m  G             A
   Abro mi corazon a tu voluntad
e|---------10-----------------------10------------------------------
B|-------------12----------------------10---------------------------
G|------------------------------------------------------------------
D|------------------------------------------------------------------
A|------------------------------------------------------------------
E|------------------------------------------------------------------


                    Em   F#m     G
   Abre los cielos Dios, Haz llover

                  Em   F#m     G
   Sobre nosotros hoy, Haz llover


Em             F#m  G
   Que tu obra se avive aqui
e|-------------10--------------10-----------------------------------
B|----------------12---------------10-------------------------------
G|------------------------------------------------------------------
D|------------------------------------------------------------------
A|------------------------------------------------------------------
E|------------------------------------------------------------------

D               Em    F#m
   en la tierra hazla conocer

e|-------------10---------------------------------------------------
B|------------------7---------------------------------------------12
G|------------------------------------------------------------------
D|------------------------------------------------------------------
A|------------------------------------------------------------------
E|------------------------------------------------------------------


Em             F#m  G               A
   Dejanos ver tus obras y tu gran poder
e|---------10-----------------------10------------------------------
B|-------------12----------------------10---------------------------
G|------------------------------------------------------------------
D|------------------------------------------------------------------
A|------------------------------------------------------------------
E|------------------------------------------------------------------


      Em    F#m   G
   Abre los cielos Dios, Haz llover

                  Em   F#m   G
   Sobre nosotros hoy, Haz llover


        Coro

    G
   Avivanos  (PARA CAMBIAR A C  PUEDEN USAR G-> A-> B-> G->  C)

         C
     Tu gloria anhelamos ver

      G/B
   Restauranos

        Em            C
     Tu rostro haz resplandecer

INTRO---> VERSO 2---> CORO ---> SOLO


Solo: G C G/B Em C x2

e|-10-10-10-8-8-7-7-7-----------------------------------------------
B|--------------------8-8-8-10-10-10-12-12--------------------------
G|------------------------------------------------------------------
D|------------------------------------------------------------------
A|------------------------------------------------------------------
E|------------------------------------------------------------------

e|-10-10-10-8-8-7-7-7-------14-14-14-14-----------------------------
B|--------------------8-8-8-----------------------------------------
G|------------------------------------------------------------------
D|------------------------------------------------------------------
A|------------------------------------------------------------------
E|------------------------------------------------------------------


e|-10-10-10-8-8-7-7-7-----------------------------------------------
B|--------------------8-8-8-10-10-10-12-12--------------------------
G|------------------------------------------------------------------
D|------------------------------------------------------------------
A|------------------------------------------------------------------
E|------------------------------------------------------------------

(ANTES DE ENTRAR A LA DA PARTE DEL SOLO ES DOBLE PUNTEO CON LA PÚA):
e|------------------------------------------------------------------
B|-17171717171717-1818-1919191919191919-----------------------------
A|------------------------------------------------------------------
D|------------------------------------------------------------------
G|------------------------------------------------------------------
E|------------------------------------------------------------------


2DA PARTE SOLO:

e|-12s19-19-19-17-17-15-15-15-10-10-10-12-12-12-14-14-14------------
B|------------------------------------------------------------------
G|------------------------------------------------------------------
D|------------------------------------------------------------------
A|------------------------------------------------------------------
E|------------------------------------------------------------------

e|-10h12-14s19-19-17-17-15-15-15-10-10-10-12-12-12-14-14-14---------
B|------------------------------------------------------------------
G|------------------------------------------------------------------
D|------------------------------------------------------------------
A|------------------------------------------------------------------
E|------------------------------------------------------------------

(ESTA PARTE ES MUY RÁPIDA, SE HACE ANTES DE LA 3ª VUELTA DE LA
2DA PARTE)
e|--10-12-15-14-12-10-----------------------------------------------
B|------------------------------------------------------------------
G|------------------------------------------------------------------
D|------------------------------------------------------------------
A|------------------------------------------------------------------
E|------------------------------------------------------------------


e|-12s19-19-19-17-17-15-15-15-10-10-10-12-12-12-14-14-14------------
B|------------------------------------------------------------------
G|------------------------------------------------------------------
D|------------------------------------------------------------------
A|------------------------------------------------------------------
E|------------------------------------------------------------------


ANTES DE ENTRAR AL CORO, SE CIERRA EL SOLO CON DOBLE PUNTEO:

e|-121212121212h14h12-1515151515151515------------------------------
B|------------------------------------------------------------------
G|------------------------------------------------------------------
D|------------------------------------------------------------------
A|------------------------------------------------------------------
E|------------------------------------------------------------------

OPCIONAL: ANTES DE ENTRAR AL CORO PUEDEN CERRAR EL SOLO CON EL DOBLE
PUNTEO EN EL TRASTE 15 CON U VIBRATO, SI SU UITARRA TIENE
PALANCA DE VIBRATO
USENLA O BIEN EN EL MISMO TRASTE QUEDENSE VIBRANDO EN ESTE TRASTE


DESPUES DEL SOLO ----> CORO ----> CORO PURA VOZ ---> CIERRA


ES CUESTION DE QUE ESCUCHEN MUY BIEN LA CANCIÓN LOS TIEMPOS
DONDE VA EL PUNTEO EN LOS VERSOS, Y EL SOLO
QUE ESTÁ UN POCO COMPLICADO, LO SAQUE ESCUCHANDO
PERO SUENA CASI IGUAL,  CUALQUIER DUDA
NO DUDEN EN ESCRIBIRME 

o Para pasar un rato platicando jesus09_ADC@
Suggest correction
Give kudos to tab author, rate the tab!
1 2 3 4 5
comments
print report bad tab
guest
Wanna post a correction for this tab? Suggest correction