Oops, an error
Loading. Please wait.

Avívanos tab

version 2
version 2

Whole song

Interactive

104 views 1 this week
no commentswrite comment
1 2 3 4 5
3 more votes to show rating
add to favorites
×
Save as Personal and add changes to this tab that will be seen only by you. Learn more ›
×
You can save this tab as Personal to edit and correct it or add notes. All changes will be seen only by you. Learn more »
launch autoscroll
font size
0
reset
how to read this tab
guitar tuner
edit
Autoscroll
slow
fast
+/-
esc
set tempo
stop
Hola que tal soy su hermano y amigo Josue, y en esta
ocasion comparto con ustedes esta tablatura de esta
cancion.

NOTA:
SI LA TABLATURA SE VE DESACOMODADA O ALGO ASI DEJENME
ACLARARLES QUE SE DEBE A LA PAGINA, ANTES NO SUCEDIA ESTO
SIN EMBARGO AHORA SUCEDE.
SI SE DESACOMODA CONTACTENME POR MAIL O POR FACEBOOK Y
YO MISMO LES PUEDO MANDAR ESTA MISMA TRANSCRIPCION
EN WORD BIEN ACOMODADA.

Artista: Marco Barrientos
Álbum: Avivanos
Canción: Avivanos
Instrumento: Guitarra Eléctrica


Intro:

E|--------------------------------------------------------------------------
B|--7--7--7--7--7--7--7--7--12--12--12--12--12--12--15--17--12--12--12--12--
G|--6--6--6--6--6--6--6--6--------------------------------------------------
D|--4--4--4--4--4--4--4--4--9---9---9---9---9---9---12--14--9---9---9---9---
A|--------------------------------------------------------------------------
E|--------------------------------------------------------------------------


E|--------------------------------------------------------------------------
B|12--12--15--17--10--10--10--10--10--10--8--8--7--7--7--7--7--7--7--7--12--
G|--------------------------------------------------------------------------
D|9---9---12--14--7---7---7---7---7---7---5--5--4--4--4--4--4--4--4--4--9---
A|--------------------------------------------------------------------------
E|--------------------------------------------------------------------------


E|--------------------------------------------------------------------------
B|12--12--12--12--12--15--17--12--12--12--12--12--12--15--17--10--10--10--10
G|--------------------------------------------------------------------------
D|9---9---9---9---9---12--14--9---9---9---9---9---9---12--14--7---7---7---7-
A|--------------------------------------------------------------------------
E|--------------------------------------------------------------------------


E|-------------------------------------------|
B|--10--10--8--8--7--7--7--7--7--7--7--7--5--|
G|-------------------------------------------|
D|--7---7---5--5--4--4--4--4--4--4--4--4--2--|
A|-------------------------------------------|
E|-------------------------------------------|


Versos

  (0:50)

E|-10------------10---------------------10---------------10-------------9---
B|-----10------------7----------12----------12---------------10------10-----
G|--------------------------------------------------------------------------
D|--------------------------------------------------------------------------
A|--------------------------------------------------------------------------
E|--------------------------------------------------------------------------


E|----9-------9--|
B|-10---10-------|
G|---------9-----|
D|---------------|
A|---------------|
E|---------------|


Pre coro 1

E|--------------------------------------------------------------------------
B|---------8-----------7------------12-----------------8-----------7--------
G|----------------------------------------14--------------------------------
D|--7s9---------9s7---------9s12----------------7s9---------9s7---------9s12
A|--------------------------------------------------------------------------
E|--------------------------------------------------------------------------


E|--------------|
B|----12--------|
G|----------14--|
D|--------------|
A|--------------|
E|--------------|

Verso 2

E|------------10-------------10-------------10--------------10--------------
B|--12------------12-------------10-------------7---------------------12----
G|--------------------------------------------------------------------------
D|--------------------------------------------------------------------------
A|--------------------------------------------------------------------------
E|--------------------------------------------------------------------------


E|----10--------------10--------------9---------9--------9---------9-|
B|--------12--------------10------10--------10-----------------10----|
G|---------------------------------------9---------9--9-----9--------|
D|-------------------------------------------------------------------|
A|-------------------------------------------------------------------|
E|-------------------------------------------------------------------|


Pre coro 2

E|--------------------------------------------------------------------------
B|---------8-----------7------------12-----------------8-----------7--------
G|----------------------------------------14--------------------------------
D|--7s9---------9s7---------9s12----------------7s9---------9s7---------9s12
A|--------------------------------------------------------------------------
E|--------------------------------------------------------------------------


E|--------------|
B|----12--------|
G|----------14--|
D|--------------|
A|--------------|
E|--------------|


Coro 1

E|-------------------------|
B|-8--8--8--8--8--8--8--8--|  Se repite
G|-7--7--7--7--7--7--7--7--|      7
D|-5--5--5--5--5--5--5--5--|    Veces
A|-------------------------|
E|-------------------------|


Puente 1


E|-------------------------------------------------------------------------
B|-12--12--12--12--12--12--15--17--12--12--12--12--12--12--15--17--10--10--
G|-------------------------------------------------------------------------
D|-9---9---9---9---9---9---12--14--9---9---9---9---9---9---12--14--7---7---
A|-------------------------------------------------------------------------
E|-------------------------------------------------------------------------


E|-------------------------------------------------------------------------
B|10--10--10--10--8--8--7--7--7--7--7--7--7--7--12--12--12--12--12--12--15-
G|-------------------------------------------------------------------------
D|7---7---7---7---5--5--4--4--4--4--4--4--4--4--9---9---9---9---9---9---12-
A|-------------------------------------------------------------------------
E|-------------------------------------------------------------------------


E|-------------------------------------------------------------------------
B|-17--12--12--12--12--12--12--15--17--10--10--10--10--10--10--8--8--7--7--
G|-------------------------------------------------------------------------
D|-14--9---9---9---9---9---9---12--14--7---7---7---7---7---7---5--5--4--4--
A|-------------------------------------------------------------------------
E|-------------------------------------------------------------------------


E|---------------------|
B|7--7--7--7--7--7--5--|
G|---------------------|
D|4--4--4--4--4--4--2--|
A|---------------------|
E|---------------------|

Verso 3

  (2:43)

E|------------------10-------------------10--------------9---------9-------
B|-12-------------------12-------------------10------10--------10-----10---
G|----------------------------------------------------------9-------------9
D|-------------------------------------------------------------------------
A|-------------------------------------------------------------------------
E|-------------------------------------------------------------------------


E|--9----|
B|-------|
G|-------|
D|-------|
A|-------|
E|-------|

Pre coro 3


E|--------------------------------------------------------------------------
B|---------8-----------7------------12-----------------8-----------7--------
G|----------------------------------------14--------------------------------
D|--7s9---------9s7---------9s12----------------7s9---------9s7---------9s12
A|--------------------------------------------------------------------------
E|--------------------------------------------------------------------------


E|--------------|
B|----12--------|
G|----------14--|
D|--------------|
A|--------------|
E|--------------|

Coro 2


E|-------------------------|
B|-8--8--8--8--8--8--8--8--|  Se repite
G|-7--7--7--7--7--7--7--7--|      7
D|-5--5--5--5--5--5--5--5--|    Veces
A|-------------------------|
E|-------------------------|

    G                                               Csus2

E|--3--3--3--3--3--3--3--3--3--3--3--3--3--3--3--3--3--3--3--3--3--3--
B|--3--3--3--3--3--3--3--3--3--3--3--3--3--3--3--3--3--3--3--3--3--3--
G|--4--4--4--4--4--4--4--4--4--4--4--4--4--4--4--4--0--0--0--0--0--0--
D|--5--5--5--5--5--5--5--5--5--5--5--5--5--5--5--5--x--x--x--x--x--x--
A|--5--5--5--5--5--5--5--5--5--5--5--5--5--5--5--5--3--3--3--3--3--3--
E|--3--3--3--3--3--3--3--3--3--3--3--3--3--3--3--3--------------------

                                Bm/5 

E|3--3--3--3--3--3--3--3--3--3--3--3--3--3--3--3--3--3--3--3--3--3--3-
B|3--3--3--3--3--3--3--3--3--3--3--3--3--3--3--3--3--3--3--3--3--3--3-
G|0--0--0--0--0--0--0--0--0--0--0--0--0--0--0--0--0--0--0--0--0--0--0-
D|x--x--x--x--x--x--x--x--x--x--x--x--x--x--x--x--x--x--x--x--x--x--x-
A|3--3--3--3--3--3--3--3--3--3--2--2--2--2--2--2--2--2--2--2--2--2--2-
E|--------------------------------------------------------------------

            Em                      C

E|-3--3--3--0--0--0--0--0--0--0--0--0--0--0--0--0--0--0--0--|
B|-3--3--3--0--0--0--0--0--0--0--0--1--1--1--1--1--1--1--1--|
G|-0--0--0--0--0--0--0--0--0--0--0--0--0--0--0--0--0--0--0--|
D|-x--x--x--2--2--2--2--2--2--2--2--2--2--2--2--2--2--2--2--|
A|-2--2--2--2--2--2--2--2--2--2--2--3--3--3--3--3--3--3--3--|
E|----------0--0--0--0--0--0--0--0--------------------------|


Solo

E|--------------------------------------------------------------------
B|-15--15--15--13--13--12--12--12--8--8--8--10--10--12--12--12--15--15
G|--------------------------------------------------------------------
D|-12--12--12--10--10--9---9---9---5--5--5--7---7---9---9---9---12--12
A|--------------------------------------------------------------------
E|--------------------------------------------------------------------


E|---------------------------------------------------------------------
B|--15--13--13--12--12--12--8--8--8--19--19--19--19--19--15--15--15--13
G|---------------------------------------------------------------------
D|--12--10--10--9---9---9---5--5--5--16--16--16--16--16--12--12--12--10
A|---------------------------------------------------------------------
E|---------------------------------------------------------------------


E|--------------------------------------------------------------------
B|--13--12--12--12--8--8--8--10--10--12--12--12---17-17-17-17-17-17-17
G|--------------------------------------------------------------------
D|--10--9---9---9---5--5--5--7---7---9---9---9----14-14-14-14-14-14-14
A|--------------------------------------------------------------------
E|--------------------------------------------------------------------


E|---------------------------------------------------------------------
B|-17-17-17-17-17-17-17-17-17-17-17-17-17-19-19-19-19-19-19-19-19-19-19
G|---------------------------------------------------------------------
D|-14-14-14-14-14-14-14-14-14-14-14-14-14-16-16-16-16-16-16-16-16-16-16
A|---------------------------------------------------------------------
E|---------------------------------------------------------------------


E|---------------------------------------------------------------------
B|-19-19-19-19-19-19-20-20-20-20-20-20-20-20-20-20-20-20-20-20-20-20-20
G|---------------------------------------------------------------------
D|-16-16-16-16-16-16-17-17-17-17-17-17-17-17-17-17-17-17-17-17-17-17-17
A|---------------------------------------------------------------------
E|---------------------------------------------------------------------

E|---------------------------------------------------------------------
B|-20-20-20-20-20-20-20-20-20-20-20-20-20-20-20-20-20-20-20-20-20-20-20
G|---------------------------------------------------------------------
D|-17-17-17-17-17-17-17-17-17-17-17-17-17-17-17-17-17-17-17-17-17-17-17
A|---------------------------------------------------------------------
E|---------------------------------------------------------------------

E|----------------------------------19--19--19--17--17--15--15---------
B|-20-20-20-20-20-20-20-20-20-20--------------------------------15--15-
G|---------------------------------------------------------------------
D|-17-17-17-17-17-17-17-17-17-17---------------------------------------
A|---------------------------------------------------------------------
E|---------------------------------------------------------------------

E|---------------------------------19b20b19--17--17--15--15------------
B|-17--17--19--19--20--20--15--15----------------------------15--15--17
G|---------------------------------------------------------------------
D|---------------------------------------------------------------------
A|---------------------------------------------------------------------
E|---------------------------------------------------------------------


E|---------------------------------15-15-17-17-19-19-17-17-15-15-------
B|--17--19--19---15-15-17-17-19-19-------------------------------19-19-
G|---------------------------------------------------------------------
D|---------------------------------------------------------------------
A|---------------------------------------------------------------------
E|---------------------------------------------------------------------


E|--------------19-19b20b19--17--17--15--15----------------------------15-
B|17-17-15-15--------------------------15--15--17--17--19--19-----
G|---------------------------------------------------------------------
D|---------------------------------------------------------------------
A|---------------------------------------------------------------------
E|---------------------------------------------------------------------


E|-15-----12-----12---12---12---12---14-----14---15-----15---15---15---15-
B|--------15b17--b17--b17--b17--b17--17b19--b19--18b20--b20--b20--b20--b20
G|------------------------------------------------------------------------
D|------------------------------------------------------------------------
A|------------------------------------------------------------------------
E|------------------------------------------------------------------------


E|--15---15---15---15---|
B|--b20--b20--b20--b20--|
G|----------------------|
D|----------------------|
A|----------------------|
E|----------------------|

Coro 3

    G                                               Csus2

E|--3--3--3--3--3--3--3--3--3--3--3--3--3--3--3--3--3--3--3--3--3--3--
B|--3--3--3--3--3--3--3--3--3--3--3--3--3--3--3--3--3--3--3--3--3--3--
G|--4--4--4--4--4--4--4--4--4--4--4--4--4--4--4--4--0--0--0--0--0--0--
D|--5--5--5--5--5--5--5--5--5--5--5--5--5--5--5--5--x--x--x--x--x--x--
A|--5--5--5--5--5--5--5--5--5--5--5--5--5--5--5--5--3--3--3--3--3--3--
E|--3--3--3--3--3--3--3--3--3--3--3--3--3--3--3--3--------------------

                                Bm/5 

E|3--3--3--3--3--3--3--3--3--3--3--3--3--3--3--3--3--3--3--3--3--3--3-
B|3--3--3--3--3--3--3--3--3--3--3--3--3--3--3--3--3--3--3--3--3--3--3-
G|0--0--0--0--0--0--0--0--0--0--0--0--0--0--0--0--0--0--0--0--0--0--0-
D|x--x--x--x--x--x--x--x--x--x--x--x--x--x--x--x--x--x--x--x--x--x--x-
A|3--3--3--3--3--3--3--3--3--3--2--2--2--2--2--2--2--2--2--2--2--2--2-
E|--------------------------------------------------------------------

            Em                      C

E|-3--3--3--0--0--0--0--0--0--0--0--0--0--0--0--0--0--0--0--|
B|-3--3--3--0--0--0--0--0--0--0--0--1--1--1--1--1--1--1--1--|  Se repite
G|-0--0--0--0--0--0--0--0--0--0--0--0--0--0--0--0--0--0--0--|       1
D|-x--x--x--2--2--2--2--2--2--2--2--2--2--2--2--2--2--2--2--|      vez
A|-2--2--2--2--2--2--2--2--2--2--2--3--3--3--3--3--3--3--3--|
E|----------0--0--0--0--0--0--0--0--------------------------|


Final

   E5

E|--0--|
B|--0--|
G|--4--|
D|--2--|
A|--2--|
E|--0--|

DIOS LES BENDIGA.

            
            
Suggest correction
Creating personal tab
Creating personal tab
You can edit any tab online and save it as your Personal.

You can edit, replace or remove any tab part or add personal notes – all changes will be seen only by you.

Personal tabs can be accessed anytime from any device, even offline.
Learn more »
Give kudos to tab author, rate the tab!
1 2 3 4 5
comments
print report bad tab
guest
Wanna post a correction for this tab? Suggest correction