Oops, an error
Loading. Please wait.

Avívanos Bass Tab

version 2
version 2

Whole song

Interactive

48 views 1 this week
no commentswrite comment
1 2 3 4 5
3 more votes to show rating
add to favorites
launch autoscroll
font size
0
reset
guitar tuner
Autoscroll
slow
fast
+/-
esc
set tempo
stop
Help us to improve Ultimate-Guitar.com Take our survey!
×
Intro:
e|------------------------------|
a|-7(6)-9-9-10(8)-5(6)-7-7-9(8)-|
d|------------------------------| x4
g|------------------------------|

Versos 1 & 2:
e|------------------------------|
a|-7(6)-9-9-10(8)-5(6)-7-7-9(8)-|
d|------------------------------|
g|------------------------------|

Precoro
e|----------------------------------------------------------|
a|-7(6)-9-9-10(8)-12(8)-0-0-0-0-0-0-0-0---------------------|
d|----------------------------------------------------------|
g|----------------------------------------------------------|


e|-0-0-0-0-2-2-2-2-3-3-3-3-3-3-3-3--------------------------|
a|----------------------------------------------------------|
d|----------------------------------------------------------|x2
g|----------------------------------------------------------|


Coro: Avivanos...
e|-------------------------------------------------|
a|-10-10-10-10-10-10-10-10-10-10-12-12-14-14-10-10-|
d|-------------------------------------------------|
g|-------------------------------------------------|

e|------------------------------------------------------------|
a|-3-3-3-3-3-3-3-3-3-3-3-3-10-10-12-12-14-14-14-14-14-14-14-14|
d|------------------------------------------------------------|
g|------------------------------------------------------------|

e|-7-7-7-7-7-7-7-7-----------------------------------|
a|-----------------7-7-7-7-7-7-7-7-3-3-3-3-3-3-3-3---|
d|---------------------------------------------------|
g|---------------------------------------------------|


Solo
e|-3(16)-----------------------------------|
a|-------3(16)-2(16)-7(8)-3(8)-------------|
d|-----------------------------------------|x2
g|-----------------------------------------|


Los números entre paréntesis son las veces que se repite la nota
Suggest correction
Give kudos to tab author, rate the tab!
1 2 3 4 5
comments
print report bad tab
guest
You may want to rate the tab now too:
select rating
Wanna post a correction for this tab? Suggest correction