Oops, an error
Loading. Please wait.

Dulce Jesús Tab

28 views 1 this week
no commentswrite comment
1 2 3 4 5
3 more votes to show rating
add to favorites
launch autoscroll
font size
0
reset
how to read this tab
guitar tuner
×
Best way to learn
"Dulce Jesús"
Autoscroll
slow
fast
+/-
esc
set tempo
stop
Un saludo y agradecimiento, para los que me ayudaron en mi formacion
en la musica... especialmente a la iglesia Ministerios Vino Nuevo.
Ivan, Julian, Alvaro y los pastores Mauricio y Maricel. MUCHAS GRACIAS...

Intro: Bm7 - F#m7

Guitarra 1 Y Bajo
e/-----------------------/------------------------/
B/-----------------------/------------------------/ x 4
G/-4-7-6-------------4---/-4-7-6------------------/
D/-------7-4-4-5-7-4---4-/-------7-4-0-2-0-2/4--/ Riff
A/-----------------------/------------------------/
E/-----------------------/------------------------/

Guitarra  2
e/-2-2-2-2----2-2-2-2----/
B/-3-3-3-3----2-2-2-2----/
G/-2-2-2-2----2-2-2-2----/ x 4/2
D/-4-4-4-4----2-2-2-2----/
A/-2-2-2-2----4-4-4-4----/
E/------------2-2-2-2----/

En las estrofas se sigue con el mismo riff de la intro...
ESTROFA 1
Bm7            A/C#
Como te puedo ocultar
         Em9                   F#m7
si tu presencia en mi me hace brincar
        Bm7           A/C#         Em9
me hace reir, me hace soñar tu presencia en mi

ESTROFA 2
Bm7            A/C#
Como te puedo negar
         Em9                F#m7
si tu presencia vino a transformar
    Bm7              A/C#           Em9
en gozo, en llanto y me lleno tu presencia en mi


CORO
F#                 D#m7
Es en tu presencia donde encuentro
      E               C#
fortaleza y consuelo, paz en mi desvelo
F#                    D#m7
Siempre tu a mi lado, cuando mas
        E                 C#
desesperado estaba tu presencia me alcanzaba

B   C#  D#m     B
Jesus, dulce jesus
B   C#  D#m     B
Jesus, dulce jesus


SOLO
   B               G#m           A             F#
e/----------------------------------------------------------/
B/----------------------------------------------------------/
G/-/4-3-4/6-4-----/4-3-4/6-4-----8-6-8/9-8-6-4-4-3-4-3-4-6--/
D/------------4-4------------4-4----------------------------/
A/----------------------------------------------------------/
E/----------------------------------------------------------/
   F#              D#m7          E                   C#
e/-------------------------------------------------/-------------/
B/-/7-6-7/9-7-----/7-6-7/9-7-----11-9-11/12-11-9-7-/-7-6-7-6-7-9-/
G/------------6-6------------6-6-------------------/-------------/ x 4
D/-------------------------------------------------/-------------/
A/-------------------------------------------------/-------------/
E/-------------------------------------------------/-------------/


Instrumental:

B - D#m7 x2

B C# D#m7 B x2

   B             F#
G/-11-10-8-6---/


Seb@stian Martinez...
Suggest correction
Give kudos to tab author, rate the tab!
1 2 3 4 5
comments
print report bad tab
guest
You may want to rate the tab now too:
select rating
Wanna post a correction for this tab? Suggest correction