Oops, an error
Loading. Please wait.

El Camino Del Señor Bass

version 1
version 1

Whole song

52 views 1 this week
no commentswrite comment
1 2 3 4 5
3 more votes to show rating
add to favorites
launch autoscroll
font size
0
reset
guitar tuner
×
Best way to learn
"El Camino Del Señor"
Autoscroll
slow
fast
+/-
esc
set tempo
stop
Verso 1 El Carmino del señor?
E|-----------------------------3-----5--|
A|-----------------3?1?0?1--------------|
D|-0------0----3------------------------|
G|----2---------------------------------|

E|----------3?0----|
A|-1?0-------------|
D|-----------------|
G|-----------------|

Verso 2 Cristo es mi fortaleza...
E|-----------------------------3---5-|
A---------------3?1?0?1--------------|
D|-0-----0----3----------------------|
G|---2-------------------------------|

E|--3-----------|
A|-----0--------|
D|--------0--2--|
G|--------------|

Pre-coro:

E|-----------------3-----------------|
A|--3-------3------------------------|
D|------------------------0-----2-3--|
G|-----------------------------------|

E|--1-----------3----------------|
A|---------3-----------1----0----|
D|-------------------------------|
G|-------------------------------|

Coro

Aleluta!!  Ey!!...

E|------------------|
A|--5?0?3?0-3?5-----|     x2
D|------------------|
G|------------------|

E|--------------|
A|--1-0-1-01-3--|    x2
D|--------------|
G|--------------|

E|-----------------|
A|-----------------|
D|--5---0?3?0?3?5--|      x2
G|-----------------|

Verso 3:

Persegui a mis enemigos...
E|-----------------|
A|--5?0?3?0-3?5----|    x2
D|-----------------|
G|-----------------|

Verso 4: Los destrui..

E|---------------|
A|--1-0-1-01-3---|    x2
D|---------------|
G|---------------|

Puente:
  G                       A (en la cuerda E)
Bajo los pies del señor calleron

E|----------------|
A|--5?0?3?0-3?5---|    X2
D|----------------|
G|----------------|
Y Se vuelve a repetir Verso 3

Coro
Aleluta!!  Ey!!...

E|------------------|
A|--5?0?3?0-3?5-----|     x2
D|------------------|
G|------------------|

E|--------------|
A|--1-0-1-01-3--|    x2
D|--------------|
G|--------------|

E|-----------------|
A|-----------------|
D|--5---0?3?0?3?5--|      x2
G|-----------------|


Final:  ///G         A   A#///
          B  C E


Saludos! su hermano en cristo Daniel

Vida Nueva Para El Mundo Tehuacan
Suggest correction
Give kudos to tab author, rate the tab!
1 2 3 4 5
comments
print report bad tab
guest
You may want to rate the tab now too:
select rating
Wanna post a correction for this tab? Suggest correction