Oops, an error
Loading. Please wait.

El Señor Está En Este Lugar Bass

version 1
version 1

Whole song

53 views 3 this week
no commentswrite comment
1 2 3 4 5
3 more votes to show rating
add to favorites
launch autoscroll
font size
0
reset
guitar tuner
Autoscroll
slow
fast
+/-
esc
set tempo
stop
S = Slap (golpe de pulgar a cuerda)
p = Pop  (Jalar cuerda)

Intro:
  E...    G...  C...  E...   G...  C...   D...  B...
e|-0------3-----------0------3--------------------|
a|--------------3------------------3------5-----2-|
d|------------------------------------------------| x2
g|------------------------------------------------|

Despues de ese intro
entra este tab hasta entrar
al verso:

Pre-verso:
e|-0-----3-5----------5----0-|
a|-----------3----2----------|
d|---------------------------|
g|---------------------------|


Verso: el señor esta en este lugar...
e|-0----3-5-----------------|
a|----------3----2---3----5-|
d|--------------------------|
g|--------------------------|


    C...            D...   E...
///Para sanar para librar para romper toda obra de maldad///

Pre-verso:

e|-0-----3-5----------5----0-|
a|-----------3----2----------|
d|---------------------------|
g|---------------------------|

Verso:(Con Slap y pop) "El señor esta...
e|-0S----0S-----------------
a|----7p----3S-3S--5s----5S-
d|--------------------7p---- x3
g|--------------------------

e|-0S----0S----------------|
a|----7p----3S-3S--2S----2S|
d|--------------------4p---|
g|-------------------------|

Bajeo no slap!
    C...            D...   E...
///Para sanar para librar para romper toda obra de maldad///


SaludOs!
spero qe les sirva
y les sea de bendicion!
Dios les bendiga!
Suggest correction
Give kudos to tab author, rate the tab!
1 2 3 4 5
comments
print report bad tab
guest
Wanna post a correction for this tab? Suggest correction