Oops, an error
Loading. Please wait.

El Señor Está En Este Lugar Tab

version 2
version 2

Whole song

310 views 6 this week
no commentswrite comment
1 2 3 4 5
3 more votes to show rating
add to favorites
launch autoscroll
font size
0
reset
how to read this tab
guitar tuner
×
Best way to learn
"El Señor Está En Este Lugar"
Autoscroll
slow
fast
+/-
esc
set tempo
stop
Artista: Marco Barrientos.
Album: En Vivo Desde El Auditorio Nacional.
Cancion: Intro/El Señor Esta En Este Lugar.
Instrumento: Guitarra Electrica.

Intro (1:06)
E|----0------------5-------------1---------1---------1------------------
B|----1------------5-------------3---------1---------3------------------
G|----0------------5-------------2---------2---------3------------------
D|----2------------7-------------0---------3---------3------------------
A|----3------------7-----------------------3---------1------------------
E|-----------------5-----------------------1----------------------------

E|-1-------1--------1------------------0--0--0--0--0--0--0--0--0--0--0--
B|-3-------1--------3------------------1--1--1--1--1--1--1--1--1--1--1--
G|-2-------2--------3------------------0--0--0--0--0--0--0--0--0--0--0--
D|-0-------3--------3------------------2--2--2--2--2--2--2--2--2--2--2--
A|---------3--------1------------------3--3--3--3--3--3--3--3--3--3--3--
E|---------1------------------------------------------------------------

E|-0--0--0--0--0--5--5--5--5--5--5--5--5--5--5--5--5--5--5--5--5--------
B|-1--1--1--1--1--5--5--5--5--5--5--5--5--5--5--5--5--5--5--5--5--------
G|-0--0--0--0--0--5--5--5--5--5--5--5--5--5--5--5--5--5--5--5--5--------
D|-2--2--2--2--2--7--7--7--7--7--7--7--7--7--7--7--7--7--7--7--7--------
A|-3--3--3--3--3--7--7--7--7--7--7--7--7--7--7--7--7--7--7--7--7--------
E|----------------5--5--5--5--5--5--5--5--5--5--5--5--5--5--5--5--------

E|--13-13-13-13-13-13-13-13-13-13-13-13-13-13-13-13-17-17-17-17-17-17-17
B|----------------------------------------------------------------------
G|----------------------------------------------------------------------
D|----------------------------------------------------------------------
A|----------------------------------------------------------------------
E|----------------------------------------------------------------------

E|-17-17-17-17-17-17-17-17-17-------------------------------------------
B|----------------------------15-15-15-15-15-15-15-15-15-15-15-15-15-15-
G|----------------------------------------------------------------------
D|----------------------------------------------------------------------
A|----------------------------------------------------------------------
E|----------------------------------------------------------------------

E|-------22-22-22-22-20-20-20-20-17-17-17-17-15-15-15-15-13-13-13-13-13-
B|-15-15----------------------------------------------------------------
G|----------------------------------------------------------------------
D|----------------------------------------------------------------------
A|----------------------------------------------------------------------
E|----------------------------------------------------------------------


E|-13-13-13-13-13-13-13-13-13-13-13-17-17-17-17-17-17-17-17-17-17-17-17-
B|----------------------------------------------------------------------
G|----------------------------------------------------------------------
D|----------------------------------------------------------------------
A|----------------------------------------------------------------------
E|----------------------------------------------------------------------

E|-17-17-17-17----------------------------------------------------------
B|-------------15-15-15-15-15-15-15-15-15-15-15-15-15-15-15-15-15-15-15-
G|----------------------------------------------------------------------
D|----------------------------------------------------------------------
A|----------------------------------------------------------------------
E|----------------------------------------------------------------------

E|-------------------------------------------12-----15--------15--------
B|-15-15-15-15-15-15-15-15-15-15-15-15-15----15b17-----17--------17-----
G|----------------------------------------------------------------------
D|----------------------------------------------------------------------
A|----------------------------------------------------------------------
E|----------------------------------------------------------------------

                   (1:56)
E|----------------|-----------------------------------------------------
B|-15-13-13-13-13-|-------3-----3---3-----3-----3---3-----3-----3---3---
G|----------------|-----2---2-----------2---2-----------2---2-----------
D|----------------|---0-------0---0---0-------0---0---0-------0---0---0-
A|----------------|-----------------------------------------------------
E|----------------|-----------------------------------------------------

E|-----------------------------------------------------------------------
B|--3-----3---3----3------3---3-----3-----3---3-----3-----3---3-----3----
G|2--2---------2---2---------2---2---------2---2---------2---2--
D|------0---0---0-------0---0---0-------0---0---0-------0---0---0------0-
A|-----------------------------------------------------------------------
E|-----------------------------------------------------------------------

                            (2:17) El Señor esta en este lugar...
E|-----------------------------------------------------------------------
B|3--3--3---------------3-------------------------------------3-
G|-------2------------------2------------------------------------------2-
D|--0----0------------------0------------------------------------------0-
A|-----------------------------------------------------------------------
E|-----------------------------------------------------------------------


  (2:31)
E|----------------------------------------------------------------------
B|------3-----3---3-----3-----3---3-----3-----3---3---------------------
G|----2---2-----------2---2-----------2---2-------------5-----5---5-----
D|--0-------0---0---0-------0---0---0-------0---0-----5---5-------------
A|--------------------------------------------------3-------3---3-------
E|----------------------------------------------------------------------

E|----------------------------------------------------------------------
B|------3-----3---3-----3-----3---3-----3-----3---3---------------------
G|----2---2-----------2---2-----------2---2-------------5-----5---5-----
D|--0-------0---0---0-------0---0---0-------0---0-----5---5-------------
A|--------------------------------------------------3-------3---3-------
E|----------------------------------------------------------------------

  Coro: (se repite)
E|-1--1--1--1--1--1--1--1--0--0--0--0--0--0--0--0--1--1--1--1--1--1--1--1
B|-3--3--3--3--3--3--3--3--1--1--1--1--1--1--1--1--3--3--3--3--3--3--3--3
G|-3--3--3--3--3--3--3--3--0--0--0--0--0--0--0--0--2--2--2--2--2--2--2--2
D|-3--3--3--3--3--3--3--3--2--2--2--2--2--2--2--2--0--0--0--0--0--0--0--0
A|-1--1--1--1--1--1--1--1--3--3--3--3--3--3--3--3------------------------
E|-----------------------------------------------------------------------

E|-5--5--5--5--5--5--5--5--1--1--1--1--1--1--1--1--0--0--0--0--0--0--0--0
B|-5--5--5--5--5--5--5--5--3--3--3--3--3--3--3--3--1--1--1--1--1--1--1--1
G|-5--5--5--5--5--5--5--5--3--3--3--3--3--3--3--3--0--0--0--0--0--0--0--0
D|-7--7--7--7--7--7--7--7--3--3--3--3--3--3--3--3--2--2--2--2--2--2--2--2
A|-7--7--7--7--7--7--7--7--1--1--1--1--1--1--1--1--3--3--3--3--3--3--3--3
E|-5--5--5--5--5--5--5--5------------------------------------------------

E|-1--1--1--1--1--1--1--1--1--1--1--1--1--1--1--1--|
B|-3--3--3--3--3--3--3--3--3--3--3--3--3--3--3--3--|
G|-2--2--2--2--2--2--2--2--2--2--2--2--2--2--2--2--|
D|-0--0--0--0--0--0--0--0--0--0--0--0--0--0--0--0--|
A|-------------------------------------------------|
E|-------------------------------------------------|

Se repite todo igual.

  (3:52)                                (4:07)
E|-------------------------------------|--------------------------------
B|-------------------------------------|--------------------------------
G|------2---3---2---------2---3---2----|------2---3---2---------2---3--2
D|--0-0---0---0---0-----0---0---0---0--|--0-0---0---0---0-----0---0---0-
A|-------------------------------------|--------------------------------
E|-------------------------------------|--------------------------------


E|-----------------------------------------------------------------------
B|-----------------------------------------------------------------------
G|------------0-----------------0--------------0---2---0---------0---2---
D|-0------3-------3---------3-------3------------------------------------
A|----1-1---1---1---1-----1---1---1---1----3-3---3---3---3-----3---3---3-
E|-----------------------------------------------------------------------

E|-------5----5-5-5---5-----1----1-1-0---0----1----|
B|-------5----5-5-5---5-----1----1-1-0---0----3----|
G|-0-----5----5-5-5---5-----2----2-2-1---1----2----|
D|-------7----7-7-7---7-----3----3-3-2---2----0----|
A|---3---7----7-7-7---7-----3----3-3-2---2---------|
E|-------5----5-5-5---5-----1----1-1-0---0---------|
Suggest correction
Give kudos to tab author, rate the tab!
1 2 3 4 5
comments
print report bad tab
guest
You may want to rate the tab now too:
select rating
Wanna post a correction for this tab? Suggest correction