Oops, an error
Loading. Please wait.

El Señor Está En Este Lugar Bass Tab

version 2
version 2

Whole song

19 views 1 this week
no commentswrite comment
1 2 3 4 5
3 more votes to show rating
add to favorites
launch autoscroll
font size
0
reset
guitar tuner
Autoscroll
slow
fast
+/-
esc
set tempo
stop
Help us to improve Ultimate-Guitar.com Take our survey!
×
Este es mi primer aporte, un amigo me enseño la canción,
y bueno quiero compartirla.

Intro:

Esta es la parte lenta
E||------------6--------|
A||5----8-----8-----8-7-|
D||--------575----------|
G||---------------------|

E||------------6-5-3----------------------------||
A||5----8-----8------3-S5-S3(16)-0(8)-8(4)-7(4)-||
D||--------575----------------------------------||
G||---------------------------------------------||


La parte rápida

E||------------------6(8)-----------|
A||5(8)----8(4)-----8-----8(4)-7(4)-|
D||-------------575-----------------|
G||---------------------------------|

E||------------------6(4)-5(4)-3(4)------------------------------||
A||5(8)----8(4)-----8--------------3S-5S(3)-3(16)-0(8)-8(4)-7(4)-||
D||-------------575----------------------------------------------||
G||--------------------------------------------------------------||

E||------------------6(8)-----------|
A||5(8)----8(4)-----8-----8(4)-7(4)-|
D||-------------575-----------------|
G||---------------------------------|

E||------------------6(4)-5(4)-3(4)------------------------------||
A||5(8)----8(4)-----8--------------3S-5S(3)-3(16)-0(8)-8(4)-7(4)-||
D||-------------575----------------------------------------------||
G||--------------------------------------------------------------||


E||---------------------||
A||5(6)--------------87-||       X4
D||-----57-8(3)-7(3)----||
G||---------------------||


Esperan en "A||-5-||" osea en "D" para pasar al Verso

Verso: El Señor esta en este lugar...

E||--------------------------------|
A||5-5-5-5-5-5-5-5-1-1-1-1-3-3-3-3-|
D||--------------------------------|
G||--------------------------------|

E||--------------------------------||
A||5-5-5-5-5-5-5-5-1-1-1-1-0-0-0-0-||
D||--------------------------------||
G||--------------------------------||


E||--------------------------------|
A||5(6)-------------87-1(8)-3(8)---|
D||----57-8(3)-7(3)----------------|
G||--------------------------------|

E||--------------------------------||
A||5(6)-------------87-1(8)-0(8)---||
D||----57-8(3)-7(3)----------------||
G||--------------------------------||

Coro: Para Sanar, para librar...

E||------------------------------------------|
A||1-1-1-1-1-3-3-3-3-3-5-5-5-5-5-8-8--8-8--8-|
D||---3---3-----5---5-----7---7-----10---10--|
G||------------------------------------------|

E||----------------------------------------||
A||1-1-1-1-1-3-3-3-3-3-5-5-5-5-5-5-5-5-5-5-||
D||---3---3-----5---5-----7---7-----7---7--||
G||----------------------------------------||

E||------------------------------------------|
A||1-1-1-1-1-3-3-3-3-3-5-5-5-5-5-8-8--8-8--8-|
D||---3---3-----5---5-----7---7-----10---10--|
G||------------------------------------------|

E||----------------------------------------||
A||1-1-1-1-1-3-3-3-3-3-5-5-5-5-5-5-5-5-5-5-||
D||---3---3-----5---5-----7---7-----7---7--||
G||----------------------------------------||

Verso...

E||--------------------------------|--------------------------------||
A||5(6)-------------87-1(8)-3(8)---|5(6)-------------87-1(8)-0(8)---|| X2
D||----57-8(3)-7(3)----------------|----57-8(3)-7(3)----------------||
G||--------------------------------|--------------------------------||

Coro... X2  En la segunda vuelta entran de
            un solo al final, no esperan tiempo.

Final:

E||---------------------||
A||5(6)--------------87-||       X4
D||-----57-8(3)-7(3)----||
G||---------------------||

*Nota: La "S" Significa Slade=Deslizarse a la siguiente nota.


Van algunos arreglos, pero suenan bien, si hay algún error
discúlpenme porq soy nuevo en el bajo.

Salu2 para mis hermanos de la Iglesia Cuadrangular
de San Lorenzo, Valle, Honduras, Bendiciones!!!
Suggest correction
Give kudos to tab author, rate the tab!
1 2 3 4 5
comments
print report bad tab
guest
You may want to rate the tab now too:
select rating
Wanna post a correction for this tab? Suggest correction