Oops, an error
Loading. Please wait.

En Tí Tab

43 views 3 this week
no commentswrite comment
1 2 3 4 5
3 more votes to show rating
add to favorites
launch autoscroll
font size
0
reset
how to read this tab
guitar tuner
×
Best way to learn
"En Tí"
Autoscroll
slow
fast
+/-
esc
set tempo
stop
En Ti confía mi corazón , En Ti reposa mi alma ,mi ser

E -----4--4-4-5-7-7-7--5-5--------------------------------------
B ---0------------------------7--7-7-9-10-10-9--7-5-------------
G --------------------------4-----------------------------------
D --------------------------------------------------------------
A --------------------------------------------------------------
E --------------------------------------------------------------

En Ti puedo ser feliz
E --------------------------------------------------------------
B --------5-5-7-9-7---------------------------------------------
G --------------------------------------------------------------
D --------------------------------------------------------------
A --------------------------------------------------------------
E --------------------------------------------------------------


CORo :

porque sé q estas obrando ,tu perfecta voluntad

E --------------------------------------------------------------
B ---8-8-7-5------------------------8-10-8-10-12-12--(10-8---------
G -----------7--7-7/9-9--(7-5-9)--9------------------------9)-------
D --------------------------------------------------------------
A --------------------------------------------------------------
E --------------------------------------------------------------


en mi vida estas obrando tu perfecta voluntad
E --------------------------------------------------------------
B ----8-7-------------------------8-10-8-10-12-12--(10-8------------
G --9----9-7--7-7/9-9--(7-5-9)--9------------------------9)---------
D --------------------------------------------------------------
A --------------------------------------------------------------
E --------------------------------------------------------------

**Las notas q etan encerradas entre parentesis () son opcionales

SALUDOS!!!
a mi amiga Brenda Haro  (ya figurastes pes) jajajajaja!!
y a Cliff y a su gente del ministerio de música de la MBC de zarte!!
Suggest correction
Give kudos to tab author, rate the tab!
1 2 3 4 5
comments
print report bad tab
guest
You may want to rate the tab now too:
select rating
Wanna post a correction for this tab? Suggest correction