Oops, an error
Loading. Please wait.

Hazme Como Tú Bass

7 views 1 this week
no commentswrite comment
1 2 3 4 5
3 more votes to show rating
add to favorites
launch autoscroll
font size
0
reset
guitar tuner
×
Best way to learn
"Hazme Como Tú"
Autoscroll
slow
fast
+/-
esc
set tempo
stop
.::Ojo::. Estas Notas son Solo para BAJO

Intro: F#-G#-D#

       F#              C#
No Hay Nada Entre Tu Y Yo
    B             A   -  G#  -    F#
Mi Rostro Brilla Con Tu Resplandor
        C#-D#-A
Alumbrame

   F#         C#
Hermoso Redentor
B           A - G# - F#
Cara A Cara Puedo Verte
F#          C#-D#-A...C#-D#-A
Hazme Como Tu

     C#           D#_E
Transformame A Tu Imagen
   B          F#
Atrame A Tu Cruz
 C#
Yo Quiero Ser
 E               B   (Arreglo con 5a y 8a)
Yo Quiero Ser Como Tu

   C#      D#_E
Muestrame Tu Gloria
   B             F#
El Brillo De Tu Rostro
 C#
Yo Quiero Ser
 E                 B
Yo Quiero Ser Como Tu


Para pasar ala 1ra Estrofa:
F#-G#-D# x2


   F#         C#
Hermoso Redentor
B           A - G# - F#
Cara A Cara Puedo Verte
F#          C#-D#-A...C#-D#-A
Hazme Como Tu

C#           D#_E
Transformame A Tu Imagen
   B          F#
Atrame A Tu Cruz
 C#
Yo Quiero Ser
 E               B   (Arreglo con 5a y 8a)
Yo Quiero Ser Como Tu

   C#      D#_E
Muestrame Tu Gloria
   B             F#
El Brillo De Tu Rostro
 C#
Yo Quiero Ser
 E                 B  (Arreglo con 5a y 8a)
Yo Quiero Ser Como Tu

Intermiedio de Guitarra:

C#-D#-E G#-A#-A
C#-D#-E G#-F#-B x2 (En la ultima pasamos a "A")


A
  Transformame
A                C#-D#-A
  Hazme Como Tu

(Se repite el Coro 2 Veces y caemos en A)

A
  Transformame
A
  Hazme Como Tu x2 (En la ultima Hacemos C#-D#-A)

Final Instrumental....

B|-----------------------|
E|--------(7)------------| <- Pueden ponerle B o A suena igual n_n
A|-(7)----------(2)---(7)|
D|-----(9)---------------|
G|-----------------------| x2

B|-----------------------|    ..:::Escunchen el Final
E|--------(9)-(7)--------|         y agregen los areglos:::..
A|-(7)---(9)---------(9)-| <-
D|-------------------(9)-| <-/ Estas 2 notas son arreglos (5a y 8a)
G|-----------------------|

B|----------------------------|
E|-----(5)--(7)-----------(7)-|
A|-(4)-----------(9)----(9)---|
D|---------------(9)(11)(9)---|
G|----------------------------|

B|-----------------------|
E|--------(9)-(7)--------|
A|-(7)-(9)----(9)--------|
D|--------------(9)------|
G|-----------------------|

B|------------------------------|
E|-(9)----------(12)------------|
A|---(9)-(11)(12)---(14)----(7)-|
D|------------------------------|
G|------------------------------|

Bueno esa es toda la cancion... Gracias! espero qe les aya ayudado
Saludos y qe Dios los Bendiga!!! :D

mi Facebook es Daniel Gonzalez Martinez.....
Suggest correction
Give kudos to tab author, rate the tab!
1 2 3 4 5
comments
print report bad tab
guest
You may want to rate the tab now too:
select rating
Wanna post a correction for this tab? Suggest correction