Oops, an error
Loading. Please wait.

Levántate Y Resplandece Tab

97 views 1 this week
no commentswrite comment
1 2 3 4 5
3 more votes to show rating
add to favorites
launch autoscroll
font size
0
reset
how to read this tab
guitar tuner
×
Best way to learn
"Levántate Y Resplandece"
Autoscroll
slow
fast
+/-
esc
set tempo
stop
Buenas compañeros adoradores.
Aquí les traigo la transcripción del solo.

Tono: E

3:23

e---------------------------------16h17-16-
B------------12h14~--16~~17b19-17----------
G---9--11/13-------------------------------
A------------------------------------------
E------------------------------------------


e--17-16-------16-----------------------------
B--------19-17----19-17-16--17-16-------------
G---------------------------------18-16-16h18-
D---------------------------------------------
A---------------------------------------------
E---------------------------------------------

e--------------------------------------------------------
B-------------------------------------16-17-19--17-16-17-
G-16----------------------------16-18--------------------
D---18-16----16--------16-18-19--------------------------
A---------19----19--19-----------------------------------
E--------------------------------------------------------

Listo!!

Recuerden que nuestro descanso, es el servicio al Señor.
Nos vemos...
Suggest correction
Give kudos to tab author, rate the tab!
1 2 3 4 5
comments
print report bad tab
guest
You may want to rate the tab now too:
select rating
Wanna post a correction for this tab? Suggest correction