Oops, an error
Loading. Please wait.

Lo Hiciste Por Mí Tab

610 views 3 this week
no commentswrite comment
1 2 3 4 5
1 last vote to show rating
add to favorites
launch autoscroll
font size
0
reset
how to read this tab
guitar tuner
×
Best way to learn
"Lo Hiciste Por Mí"
Autoscroll
slow
fast
+/-
esc
set tempo
stop
Dios les Bendiga.... Aqui vamos....


Intro: Tienen que hacerlo distorsión limpia y con Palm Mute

e---------------------------------------------------------
B---------------------------------------------------------
G-------------------------4-6-----------------------------
D---4-4-----7-7-4-4-7-4---------4-4-----7-7-4-4-7-4-------
A-------7-7-------------7-----------7-7-------------7-4-2-
E---------------------------------------------------------

e---------------------------------------------------------
B---------------------------------------------------------
G-------------------------4-6-----------------------------
D---4-4-----7-7-4-4-7-4---------4-4-----7-7-4-4-7-4-------
A-------7-7-------------7-----------7-7-------------7-5-7-
E---------------------------------------------------------

e---------------------------------------------------------
B---------------------------------------------------------
G-------------------------4-6-----------------------------
D---4-4-----7-7-4-4-7-4---------4-4-----7-7-4-4-7-4-------
A-------7-7-------------7-----------7-7-------------7-4-2-
E---------------------------------------------------------

e----------------------------------------------------------
B--------------------------------7-7-----5-5---------------
G-------------------------4-6--------6-6-----6-4---4-------
D---4-4-----7-7-4-4-7-4--------------------------7---7-----
A-------7-7-------------7------------------------------5-7-
E----------------------------------------------------------


Verso


F#m      G#   A             E
      En la cruz, lo diste todo

               D         C#5
      te entregaste, por mi


          //Punteo de Guitarra//

e--10-9---------9--------9-10-9----------
B----------9-10---12--12--------9-12-----
G-------11----------------------------7--
D----------------------------------------
A----------------------------------------
E----------------------------------------

F#m      G#  A       E
      El Poder de tu sangre

                   D C#5 A5        E          D
      Rompió mi esclavitud, Tengo Vida Tengo Paz


Coro

A            E             F#m
No me olvidare lo que hiciste por mi

D
Me Amaste

A           E             F#m
Yo proclamare tu gran bondad Jesús

D            E F#m D E
Me Salvaste


Se repite el verso y Coro


Puente

     D          E
Redentor, Príncipe de Paz

      F#m       E          E D C#m D
El autor, de mi salvación


e-----------------------------------------------------------
B-----------------------------------------------------------
G-----------------------------------------6-6-6-7-7-7-9-9-9-
D-----------------------------------------------------------
A----------0-2---------0h2-0--------0-2---4-4-4-5-5-5-7-7-7-
E---2--2-0-----2---2-0-------2--2-0-------------------------


Y ESO ES TODO...YEHA...TODA LA GLORIA SEA PARA EL AUTOR DE LA SALVACIÓN
NUESTRO SEÑOR JESUS.....


BRYAN, ELIAS, JOSE JORGE, DEBORAH, MELVIN, MARITONO, ALEJANDRO, SIGAMOS FIRMES
EN EL SEÑOR. DLBM
Suggest correction
Give kudos to tab author, rate the tab!
1 2 3 4 5
comments
print report bad tab
guest
You may want to rate the tab now too:
select rating
Wanna post a correction for this tab? Suggest correction