Oops, an error
Loading. Please wait.

Lo Hiciste Por Mí Bass

104 views 1 this week
no commentswrite comment
1 2 3 4 5
3 more votes to show rating
add to favorites
×
Save as Personal and add changes to this tab that will be seen only by you. Learn more ›
×
You can save this tab as Personal to edit and correct it or add notes. All changes will be seen only by you. Learn more »
save as personal
new!
launch autoscroll
font size
0
reset
guitar tuner
Autoscroll
slow
fast
+/-
esc
set tempo
stop
hola, bendiciones les dejo las tab de esta canción

INTRO:

G---------------------------------------------------------------------
D------------------------9/11-11--------------------------------------
A-9-9-------12-9-9-12-12-----------9-9-------12-12-9-9-12-12----------
E-----12-12----------------------------12-12-----------------12-9-7---
   ESTO SE REPITE 3 VECES Y LA ULTIMA VUELTA CAMBIA EL FINAL QUE VA ASI:

G---------------------------------11-11-------9-9------------------------
D------------------------9/11-11--------11-11-----11-11-7/9--5/7---------
A-9-9-------12-9-9-12-12------------------------------------------7------
E-----12-12--------------------------------------------------------------

LUEGO EMPIEZA EL VERSO QUE VA ASI:

G----------------------------------------------------------------------
D----------------------------------------------------------------------
A-------------------------------7777777777---555555-44-----------------
E-2222222222---4444--555555555-------------------------5555------------
 ESTO RE REPITE HASTA LA PARTE QUE DICE:
 ''tengo vida tengo paz''
G-------------------------------------------
D-------------------------------------------
A--777777777777-555555555555555-------------
E-------------------------------------------

DE HAY PASA AL CORO QUE ES ASI:
G-----------------------------------------------------
D-----------------------------------------------------
A----------7777777777-99999999999--555555555----------
E--5555555--------------------------------------------

RIFF: Em-F#-D-Em
REPITE VERSO Y CORO

''redentor, pricipe....''
G-----------------------------------------------------------------------
D-----------------------------------------------------------------------
A-555555555555-7777777777777777-9999999999999999999-77777777777-7-5-4-5-
E-----------------------------------------------------------------------

SOLO DE GUITARRA:
G-------------------------------------------
D-------------------------------------------
A---------------------------------4-5-7-----
E-2-2-0-5-7-2-2-0-5~7~5-2-2-0-5-7-----------

ESTO SE REPITE 4 VESES Y LA ULTIMA VEZ GOLPEA LA 4 AL AIRE (E)

LUEGO EMPIEZA EL CORO Y TERMINA CON LA INTRO.

saludos espero que les sirva, bendiciones!
Suggest correction
Give kudos to tab author, rate the tab!
1 2 3 4 5
comments
print report bad tab
guest
Wanna post a correction for this tab? Suggest correction