Oops, an error
Loading. Please wait.

Mas De Tí Bass

43 views 1 this week
no commentswrite comment
1 2 3 4 5
3 more votes to show rating
add to favorites
launch autoscroll
font size
0
reset
guitar tuner
×
Best way to learn
"Mas De Tí"
Autoscroll
slow
fast
+/-
esc
set tempo
stop
Intro.
E-----------------3-|-----------------3-|
A--5-7--7-9-10-10---|--5-7--7-9-10-10---|
D-------------------|-------------------|
G-------------------|-------------------| x2

Quiero estar en tu presencia?        Necesito estar con tigo?
E----2------------------5--------|---------7-5-------------5-|
A--5---7-7--2-0?2-4--5----5-4--2-|-0--7--7------2-4-5----5---|
D--------------------------------|---------------------7-----|
G--------------------------------|---------------------------|

Dame de beber? de tu man?        Dame de beber? necesito mas
E--2--3--------3-3-2-2-2--3-5-7-|-5-----7-7-5--5-7-------------5-|
A--------5---5------------------|---5-7------------4--4-5----5---|
D----------5--------------------|--------------------------7-----|
G-------------------------------|--------------------------------|

Dame de beber? de tu manantial.            Dame de beber? necesito mas.
E--5-5-2--3-------3--3-3--2--2-2--2-3-5-7-|-2----------0-----7-5----|
A-----------5-----------------------------|---2-0--5-7---7-7------4-|
D-------------5-5-------------------------|-------------------------|
G-----------------------------------------|-------------------------|

Vuelve a la Intro

Quiero más?          Quiero más?
E--3--3--2--------|-0--2--------2-3-|
A----------0-1-2--|------1-2--0-----|
D-----------------|-----------------|
G-----------------|-----------------|

Más de tu Esp?      quiero más?
E--2---1-2-3--3---|-0-2-3--5---------2-3-|
A---------------2-|----------7-5---5-----|
D-----------------|--------------7-------|
G-----------------|----------------------|

?
Quiero más?                   Quiero más?
E--3--3-3--5-3-2-------|-0--2--------2-3-|
A----------------0-1-2-|------1-2--0-----|
D----------------------|-----------------|
G----------------------|-----------------|

Más de tu Esp?         quiero más?
E--2---1-2-3--3-----|-0-2-3--0-5---5-----2-3-|
A---------------0-2-|------------7---5-5-----|
D-------------------|------------------------|
G-------------------|------------------------|


Bueno de ahí en adelante son las mismas notas solo que ahora el ritmo
tiene más pulsaciones en el bajo(lo que comúnmente se le llaman
corcheasteniendo en cuenta que la canción esta en 4/4) y el bajista
adiciona cositas en el ritmo como las siguientes:

Al minuto 4 con 15 segundos sube una octava y hace lo siguiente:

Quiero más?
E-------------------------------------------------------5---5--2-3|
A--7-7-7-7-9-9-9-9-10-10-10-10-12-12-12-12-5-5-5-5--7-5---5-------|
D-----------------------------------------------------------------|
G-----------------------------------------------------------------|

El ultimo D que hice, el original es en la quinta cuerda, en el tercer
traste, yo lo hice en la tercera porque tengo un bajo de cuatro
cuerdas; de las dos maneras suena igual?
El ultimo pedazo desde el E el cambio es rápido ténganlo en cuenta.

Al minuto 5 con 50 segundos hace el siguiente adorno:

Yo quiero mas y mas y mas de ti mi Dios
E--5-5-5-5--7-5-7---7--5-5-5-----------3-3-3-----------5-----|
A-----------------5----------7-------7-------5-------5---7---|
D------------------------------7-7-7-----------5-5-5-------7-|
G------------------------------------------------------------|

Los cambios de esta parte son variados se necesita escuchar bien la
canción para saber cuáles son los cambios de notas.

Al minuto 6 con 13 segundos hay un adorno como el siguiente:

Yo quiero más?
E---------------5---5--2-3-------3-3-3-5-5-5-5-7-7-7-5-7-|
A--5s7s9--5-7-5---5--------5-----------------------------|
D----------------------------5s7-------------------------|
G--------------------------------------------------------|

E-5-5-5-----3-3-3-5-|
A-------7-----------|
D---------7---------|
G-------------------|

En esta parte también se emplea la quinta cuerda para los que la tienen,
remplacen el cuarto D que escribí por el del traste tres de la quinta
cuerda.

Bueno eso es todo espero que les sirva de ayuda, pueden hacer arreglos
con las mismas notas del principio adicionándoles quintas y octavas
combinándolas como Dios les revelen mientras ministran? cualquier cosa
les dejo mi correo electrónico si tienen alguna duda o corrección
cualquier cosa voy a estar atento? Dios les bendiga?
juradotercero@ (me interesa interactuar con musicos)
Suggest correction
Give kudos to tab author, rate the tab!
1 2 3 4 5
comments
print report bad tab
guest
You may want to rate the tab now too:
select rating
Wanna post a correction for this tab? Suggest correction