Oops, an error
Loading. Please wait.

Me Vuelvo A Tí Tab

version 1
version 1

Whole song

86 views 1 this week
no commentswrite comment
1 2 3 4 5
3 more votes to show rating
add to favorites
×
Save as Personal and add changes to this tab that will be seen only by you. Learn more ›
×
You can save this tab as Personal to edit and correct it or add notes. All changes will be seen only by you. Learn more »
save as personal
new!
launch autoscroll
font size
0
reset
how to read this tab
guitar tuner
Autoscroll
slow
fast
+/-
esc
set tempo
stop
Intro: C#m G#m A F#m B
FIGURA DEL INTRO 0:0
e|-------12-11--------------------
B|-9---9------12------------------
G|--------------------------------
D|--------------------------------
A|--------------------------------
E|--------------------------------

e|--------------------------------
B|-5-7-9--7-9---5-7-9--7-9--------
G|--------------------------------
D|--------------------------------
A|--------------------------------
E|--------------------------------

e|--------------------------------
B|---5--12---5s7-7--9-------------
G|-6------------------------------
D|--------------------------------
A|--------------------------------
E|--------------------------------


C#m     G#m
Crea en mí
             A             F#m     B
Un limpio corazón como el tuyo Señor
C#m        G#m
Renueva en mí
      A            F#m     B
Un espíritu que te ame Señor

A       B     C#m
Muestra tu bondad

C#m    D#m   E
Por tu gran misericordia
A     B      C#m
Lava mi interior
D              B
Avívame, oh Dios

DESPUES DE ESTO, SE REPITE PERO AL MISMO
TIEMPO CON EL VERSO SE TOCA LA FIGURA DEL INTRO

GUITAR SOLO: C#m G#m A F#m B

e|-12-12-12-11-11-------------------------------
B|----------------12-12-12-9-9-9--7-7-5-5-5-----
G|----------------------------------------------
D|----------------------------------------------
A|----------------------------------------------
E|----------------------------------------------

e|-12-12-12-11-11-------------------14-14p12-12p11-11-11--------
B|----------------12-12-12---8-8-8------------------------------
G|--------------------------------------------------------------
D|--------------------------------------------------------------
A|--------------------------------------------------------------
E|--------------------------------------------------------------
e|-12-12-12-11-11-------------------------------
B|----------------12-12-12-9-9-9--7-7-9-9-9-----
G|----------------------------------------------
D|----------------------------------------------
A|----------------------------------------------
E|----------------------------------------------

e|-9---9------11--11----12---12--------16-------
B|--10--10s12---12-12s14--14---14--14-----------
G|----------------------------------------------
D|----------------------------------------------
A|----------------------------------------------
E|----------------------------------------------

EN DONDE TERMINA EN EL TRASTE 16 ANTES DE ENTRAR AL CORO
NO LE HAGAN NINGUN VIBRATO NI FELLING, NI NADA, SOLO DEJEN
QUE LA CUERDA SIGA SONANDO Y AL TOCARLA APAGUEN EL SONIDO DE
LA SEGUNDA CUERDA CON LA YEMA DEL DEDO PARA QUE NO SE OIGA
AL MISMO TIEMPO CON LA OTRA COMO SE OYE EN LA CANCION


E       B      C#m
   Jesús, Jesús
        A
Hoy me vuelvo a Ti
E       B      C#m
   Jesús, Jesús
         A
Brilla sobre mí ESCUCHEN BIEN LA CANCIÓN PARA EMPEZAR A LEER LOS
TABS Y LO PUEDEN SACAR, CUALQUIER DUDE ESCRIBANME A


o msn Jesus09_ADC@
Suggest correction
Give kudos to tab author, rate the tab!
1 2 3 4 5
comments
print report bad tab
guest
Wanna post a correction for this tab? Suggest correction