Oops, an error
Loading. Please wait.

Me Vuelvo A Tí Tab

version 2
version 2

Whole song

31 views 1 this week
no commentswrite comment
1 2 3 4 5
3 more votes to show rating
add to favorites
launch autoscroll
font size
0
reset
how to read this tab
guitar tuner
×
Best way to learn
"Me Vuelvo A Tí"
Autoscroll
slow
fast
+/-
esc
set tempo
stop
Intro: C#m G#m A F#m-B (usa suspendidas)
e|---12-11-----------------------------7-----------
B|--9--9-12----7-9--7-9---7-9---7-9---5-----7-9-(9)
G|-9---------9----(9)----9----(9)----6---6s8-------
D|------------------------------------------------x2

Verso:
C#m7     G#m
Crea en mi
             Asus4          F#msus4  Bsus2
Un limpio corazon como el Tuyo Señor
C#m        G#m7
Renueva en mi
      A            F#m7     B
Un espiritu que Te ame Señor

Coro:
A       B     C#m7
Muestra Tu Bondad
C#m    B/D#   E
Por Tu gran Misericordia
A     B      C#m7
Lava mi interior
D             Bsus2
Avivame, oh Dios

GUITAR SOLO (Puente): /E G#m A F#m Bsus2/ E
e|-------------------------------14-12s11-------
B|-17-16-12-9-7-5--17-16-12-10-12---------------
G|----------------------------------------------
D|----------------------------------------------

e|----------------9--9--11--11--12--12--16-(12)-
B|-17-16-12-9-7-9--10-10--12--12--14--14--------
G|----------------------------------------------
D|----------------------------------------------

Estribillo:
E      Bsus2   C#m
 Jesus, Jesus
        A
Hoy me vuelvo a Ti
E      Bsus2   C#m
 Jesus, Jesus
        A
Brilla sobre mi

GUITAR SOLO2: /E Bsus2 C#m7 Asus2/ E

Esta part del solo2 no la he terminado pero ahi va lo más importante
e|----------14-12-11-16-11-12-12-14-16-19-17-16-11-12-14-
B|-17-16-12----------------------------------------------
G|----------------------------------------------

FIN:E
Esto es lo que hace el piano al final y en el "canto espontaneo"
o "ministracion" (siguiente cancion)
e|-----------
B|-5--9-7-7-5-5--5--9-7-7-5--9-9-9-7-5-(5)----
G|-4----------4--4----------------------------
Suggest correction
Give kudos to tab author, rate the tab!
1 2 3 4 5
comments
print report bad tab
guest
You may want to rate the tab now too:
select rating
Wanna post a correction for this tab? Suggest correction