Oops, an error
Loading. Please wait.

Me Vuelvo A Tí Tab

version 3
version 3

Whole song

40 views 1 this week
no commentswrite comment
1 2 3 4 5
3 more votes to show rating
add to favorites
launch autoscroll
font size
0
reset
how to read this tab
guitar tuner
×
Best way to learn
"Me Vuelvo A Tí"
Autoscroll
slow
fast
+/-
esc
set tempo
stop
Esta 100% bien

::::::::INTRO:::::::::

e|-------12-12/11----|
B|----12----------12-|    Se Usa un CAPOTRASTE
G|-13----------------|    en esta cancion para ayudar
                          a que los bajos suenen mas agugos
e|---------------|        asi que no tengas miedo de rasguear
B|------10----10-| (X2)   todas las cuerdas
G|-9-11----11----|
                          CAPOTRASTE en el "4" Traste
e|-----7-------|
B|---5---5/7-9-|
G|-6-----------|

::::::::::ESTROFA::::::::::

Crea en mí
Un limpio corazón como el tuyo Señor
Renueva en mí
Un espíritu que te ame Señor

:::::::PRE-CORO:::::::::

   A       B     C#m
   Muestra tu bondad
   C#m    D#m   E
   Por tu gran misericordia
   A     B      C#m
   Lava mi interior
   D              F
   Avívame, oh Dios

ESTROFA::: en esta se toca la intro
PRE-CORO::

:::::::::::::::::::SOLO 1:::::::::::::::::::

e|-----------------------------------------|
B|-17-17-17-16-16-16-12-12-9-9-9-7-7-7-5-5-|
G|-----------------------------------------|

e|---------------------------14-12b-11b-|
B|-17-17-17-16-16-16-12-12-9------------|
G|--------------------------------------|

e|-----------------------------------------|
B|-17-17-17-16-16-16-12-12-9-9-9-7-7-7-5-5-|
G|-----------------------------------------|

e|-----9----9-------11----11-------12----12----16-|
B|-/10---10---10/12----12----12/14----14----14----|
G|------------------------------------------------|

E       B      C#m
   Jesús, Jesús
        A
Hoy me vuelvo a Ti
E       B      C#m
   Jesús, Jesús
         A
Brilla sobre mí

:::::::::::::::::::::SOLO 2:::::::::::::::::::::

e|-------------------------14-14-14-12-12-12-11-11-|
B|-17-17-17-16-16-16-12-12-------------------------|
G|-------------------------------------------------|

e|-16-16-14-12-12----------------16-14-16/18-16-|
B|-----------------14h16b-14-12-----------------|
G|----------------------------------------------|

e|-19-19-19-19-19-19-19-17-17-17-17-17-16-16-16-16-|
B|-------------------------------------------------|
G|-------------------------------------------------|

e|-14-12-14b----------|
B|-----------14-16-16-|
G|--------------------|

e|--------------16b--------------19b--------------17b-16-|
B|-14-16b-14-12-----14-16b-14-16-----14-16b-14-12--------|
G|-------------------------------------------------------|

e|-14---------------------|
B|----17-16b--14----------|
G|---------------16-17/13-|

e|------------9-11b-(11)-11-9-11-|
B|-----9b-12---------------------|
G|-12b---------------------------|

e|-------9-11-11b-(11)--12-|
B|-11h12-------------------|
G|-------------------------|

E       B      C#m
   Jesús, Jesús
        A
Hoy me vuelvo a Ti                 O.V.I.C.E
E       B      C#m      "I.D.E.A" Iglesia Dios Es Amor
   Jesús, Jesús        La Fria Edo. Tachira - VENEZUELA
         A
Brilla sobre mí

     C#m     D#m     E        A       B      D        F
   e|-9--| e|-11-| e|-12-| e|-9--| e|----| e|-10-| e|-9--|
   B|-9--| B|-11-| B|-9--| B|-10-| B|-12-| B|-7--| B|-9--|
   G|-9--| G|-11-| G|-9--| G|-9--| G|-11-| G|-7--| G|-11-|
   D|-11-| D|-13-| D|----| D|-9--| D|-9--| D|----| D|-11-|
   A|----| A|----| A|----| A|----| A|----| A|----| A|----|
   E|----| E|----| E|----| E|----| E|----| E|----| E|----|
Suggest correction
Give kudos to tab author, rate the tab!
1 2 3 4 5
comments
print report bad tab
guest
You may want to rate the tab now too:
select rating
Wanna post a correction for this tab? Suggest correction