Oops, an error
Loading. Please wait.

Me Vuelvo A Tí Bass Tab

25 views 1 this week
no commentswrite comment
1 2 3 4 5
3 more votes to show rating
add to favorites
launch autoscroll
font size
0
reset
guitar tuner
×
Best way to learn
"Me Vuelvo A Tí"
Autoscroll
slow
fast
+/-
esc
set tempo
stop
hola, les voy a enceñar esta cancion espero que les guste!

Intro:
G|---------------------------------------------
D|---------------------------------------------
A|-4-4(6)--------------------2-2-2-2----------- x2
E|-------4-4(6)-5-5(6)-2-2-2-------------------

Verso: ''Crea en mi,un limpio...''
G|---------------------------------------------
D|---------------------------------------------
A|-4-4444-4-----------------------2-2---------- x2
E|---------4-4444-4-5-5555-5--2-2--------------

Interlude: ''Muestra tu bondad...''
G|----------------------------------------------------
D|----------------------------------------------------
A|-----2(4)-4(10)-6(4)-7(4)-----2(4)-4(4)-5(8)-2(8)---
E|-5(4)---------------------5(4)----------------------

Despues hace asi:

Verso
Interlude
Solo de Guitarra (toca las notas del intro)

Despues empiesa a decir ''jesus,jesus...''
(2:49 seg)
G|---------------------------------------------
D|---------------------------------------------
A|-7-77777--2-22222-4-44444--------------------
E|--------------------------5-55555------------

repite esto hasta que termina la cancion
NOTA:cuando espiesa a sonar la guitarra con distorsion el bajo,
va mas rapito pero sigue con las mismas notas..


espero que les pueda ayudar,
cualquier sonsulta/sugerencia les dejo mi mail
bassesmen@ saludos de argentina y dios los bendigaa!
Suggest correction
Give kudos to tab author, rate the tab!
1 2 3 4 5
comments
print report bad tab
guest
You may want to rate the tab now too:
select rating
Wanna post a correction for this tab? Suggest correction