Oops, an error
Loading. Please wait.

No Hay Nadie Como Tú Tab

version 1
version 1

Whole song

Interactive

64 views 1 this week
no commentswrite comment
1 2 3 4 5
3 more votes to show rating
add to favorites
launch autoscroll
font size
0
reset
how to read this tab
guitar tuner
×
Best way to learn
"No Hay Nadie Como Tú"
Autoscroll
slow
fast
+/-
esc
set tempo
stop
Intro de violin

e|---------------------------------------------------------------|
B|-12h13-15--13-12-13-15--13-12-----13-12--------13-12-----12----|
G|-------------------------------14-------14--12-------14-----12-|
D|---------------------------------------------------------------|

e|-----------------------|
B|-----------------12-13-|
G|-12-12----14--14-------|
D|-------12--------------|

e|------------------15-17-15--19-17-15----------------------|
B|-15--13-12-13-15------------------------------------------|
G|--------------------------------------16-14-16-12---------|
D|---------------------------------------------------12--14-|

e|---------------|
B|---------------|
G|-11h12--11--12-|
D|---------------|


Para cualquier ayuda con intros y arreglos, dejo mi msn:
saviour_king@

Hasta luego y DLB.
Suggest correction
Give kudos to tab author, rate the tab!
1 2 3 4 5
comments
print report bad tab
guest
You may want to rate the tab now too:
select rating
Wanna post a correction for this tab? Suggest correction