Oops, an error
Loading. Please wait.

Nunca Pasará Bass

14 views 3 this week
no commentswrite comment
1 2 3 4 5
3 more votes to show rating
add to favorites
launch autoscroll
font size
0
reset
guitar tuner
×
Best way to learn
"Nunca Pasará"
Autoscroll
slow
fast
+/-
esc
set tempo
stop
Bueno muchachos esta canción es el  5° del álbum
transformados,la que le sigue de la 4° canción
con el mismo nombre "transformados" la cual subí los tabs
para bajo eléctrico

escala Do mayor

Bueno, les sugiero que oigan bien la canción
para que se guíen, suena mas o menos así

 Am             F                  C                 G
                 Nunca pasará                          nunc a pasará
G|--------------------------------------------------------------------------|
D|----------------------------------------10---10---------------------------|
A|---------------8-8--8--8-8h10--------10---------------10-10--10--10-10----|
E|-5-5--5--5-5--------------------8-8--------------8------------------------|

  Am                   F                   C                 G
                 Tu amor por mi                  tu amor por mi
|-----------------------------------------------------------------------------|
|-------10------------------10---------------------10---10--------------------|
|-12-12----12---12------8-8----8---8-8h10-------10------------10-10--10--10-10|
|-------------------------------------------8-8------------8------------------|


Am             F                  C                 G
                 Nunca pasará                          nunc a pasará
G|--------------------------------------------------------------------------|
D|----------------------------------------10---10---------------------------|
A|---------------8-8--8--8-8h10--------10---------------10-10--10--10-10----|
E|-5-5--5--5-5--------------------8-8--------------8------------------------|
   Am                   F                   C             G
                 Tu amor por mi                  tu amor por mi
|---------------------------------------------------------------------------|
|-------10------------------10---------------------10-----------------------|
|-12-12----12---12------8-8----8---8-8h10-------10--------10--10-10-10-10...|
|-------------------------------------------8-8-------8---------------------|

  A           F        C               G
        Lara lara lara ?
|----------------------------------9----------------------------------------|
|------7--5--------------------10-------------------------------------------|
|------------8--7--5-------10--------8h10-10-10-8h10-10-10------------------|
|-5-5-----------------8--8--------------------------------------------------|

y bueno esto se tocan en casi toda la canción
espero que lo disfruten y que toda la gloria sea para
Cristo
Los saludo desde la iglesia "Casa del Rey" en B/quilla
¡Bendiciones!

efra919@
Suggest correction
Give kudos to tab author, rate the tab!
1 2 3 4 5
comments
print report bad tab
guest
You may want to rate the tab now too:
select rating
Wanna post a correction for this tab? Suggest correction