Oops, an error
Loading. Please wait.

Será Llena La Tierra Tab

version 1
version 1

Whole song

Interactive

74 views 1 this week
no commentswrite comment
1 2 3 4 5
3 more votes to show rating
add to favorites
launch autoscroll
font size
0
reset
how to read this tab
guitar tuner
×
Best way to learn
"Será Llena La Tierra"
Autoscroll
slow
fast
+/-
esc
set tempo
stop
este es la intro de la cancion:

E------------------------------------------/
A-----------------------------------------/
D--7----5-6-7----5-6-7-----5-6-7------------/
G-----5--------5--------5-------------------/   X4
B--------------------------------------------/
e--------------------------------------------/

Este es el solo de la cancion

         Am                 F              G
E---------------------------------------------------------------/
A-----------------------------------------------------------/
D---------------------------7-9---------------------------------/
G--7/9-9-9-9-9-8/9-9-9-9-9-------7-9----------------------------/
B-------------------------------------10---------------10-8-10---/
e-----------------------------------------8-10-11-10-8----------/

                C                         E
E-----------------------------------------------------------/
A--------------------------------------------------------/
D-----------7-9-------------------------------------------/
G----9-7-9------7-9--7/9--9-9-9-9-8/9--9-9-9-9--7-9------/
B--8-------------------------------------------------8-10---/
e------------------------------------------------------------/

   Am                 F                        G
E-----------------------------------------------------------------/
A-----------------------------------------------------------------/
D---------------------------------------------------------------/
G--9------------------------------------------------------------/
B-10------10-------------------------------------------------/
e--8---8------11-12-15-12-11-12-11/12-11-10-8-10--10/12-11-----/

       C                               E                Am
E-----------------------------------------------------------------
A--------------------------------------------------------------
D---------------------------------------------------------------
G------------------------------------------------------------
B-------------------------------------------------------10---
e--11-12-15-12-11-12-17-15-12-15-12-11-12-11/12-10-8-10-----


Es te es el final es igual que el inicio pero tiene algo mas

E-----------------------------------------/
A-----------------------------------------/
D--7----5-6-7----5-6-7-----5-6-7------------/X3
G-----5--------5--------5-------------------/
B--------------------------------------------/
e--------------------------------------------/
e-------------------------------------------


Ala tercera ves de haber repetido eso asen esto si quieren

E---------------------------------------
A---------------------------------------
D---------------------------------------
G---------------------11-10-9h-----------------
B-----------------10--------------------
e-12-11-10-8/10-8-------------------------

Y hacen el ultimo pedaso


y un saludo a mis brother de la iglesia vida abundante en el salvador
Suggest correction
Give kudos to tab author, rate the tab!
1 2 3 4 5
comments
print report bad tab
guest
You may want to rate the tab now too:
select rating
Wanna post a correction for this tab? Suggest correction