Oops, an error
Loading. Please wait.

Sólo A Tí Tab

version 2
version 2

Whole song

13 views 1 this week
no commentswrite comment
1 2 3 4 5
3 more votes to show rating
add to favorites
launch autoscroll
font size
0
reset
how to read this tab
guitar tuner
Autoscroll
slow
fast
+/-
esc
set tempo
stop
Help us to improve Ultimate-Guitar.com Take our survey!
×
Intro
e---------------------------------------------------------------
B------3-----3--------3-----3---------2----0-2--------0-----0---
G----4-----4--------2-----2--------2---------------1------2-----
D--4-----4--------4-----4--------2------2--------2------2-------
A---------------------------------------------------------------
E---------------------------------------------------------------

e----------------------------------------------------------------0-0--
B------3-----3--------3-----3--------2----0-2-----------0-------------
G----4-----4--------2-----2--------2-----------2-------1------2-------
D--4-----4--------4-----4--------2------2------------2------2---------
A---------------------------------------------------------------------
E---------------------------------------------------------------------

Bm     D   A       E
 Poderoso santo dios
Bm        D         A           E
Reinas en majestad glorioso rey x2
       E    Bm      D       A
Quiero adorar quiero adorarte    [x2]
      F#m E   D        F#m E    D
Solo a ti Jesús solo a ti mi dios    [x2]


Solo

e---12-12-12-------------------------------------------------
b------------12-12---14-14--14b15r14b15b14b15r14-------------
G------------------------------------------------------------
D------------------------------------------------------------
A------------------------------------------------------------
E------------------------------------------------------------

e----------------------------------------12-14-16-17-19------
b--17-15-12-14b-14v---14-12-10-12b-12v-----------------------
G------------------------------------------------------------
D------------------------------------------------------------
A------------------------------------------------------------
E------------------------------------------------------------

e-19b-17-19----17v--19b-17-19---17v---16-17--19-19---16-14---
b-----------19----------------19---------------------------17
G------------------------------------------------------------
D------------------------------------------------------------
A------------------------------------------------------------
E------------------------------------------------------------


v = Vibrato

b = Bend

r = release
Suggest correction
Give kudos to tab author, rate the tab!
1 2 3 4 5
comments
print report bad tab
guest
You may want to rate the tab now too:
select rating
Wanna post a correction for this tab? Suggest correction