Oops, an error
Loading. Please wait.

Sólo A Tí Bass

16 views 1 this week
no commentswrite comment
1 2 3 4 5
3 more votes to show rating
add to favorites
launch autoscroll
font size
0
reset
guitar tuner
Autoscroll
slow
fast
+/-
esc
set tempo
stop
buenas,esta cancion en el bajo es facil,ya que solo marca.

Intro:
G|------------------------------------------
D|------------------------------------------
A|-22-222-2s5-55-555-------77-777----------- x2
E|------------------55-555------------------

Verso:''Poderoso,santo dios...'' (1:04)seg
G|------------------------------------------
D|------------------------------------------
A|-22-222-2s5-55-555-------77-777----------- x2
E|------------------55-555------------------

Coro 1:''Quiero adorar,Quiero...''
G|--------------------------------
D|--------------------------------
A|--7(8)-2(8)-5(8)---------------- x2
E|-----------------5(8)-----------

Coro 2:''Solo a ti jesus...''
G|--------------------------------------
D|--------------------------------------
A|----------7-7-7-7--5-5-5-5-5-5-5-5---- x2
E|--2-2-2-2-----------------------------

Despues hace asi:
Intro
Verso
Coro 1
solo guitarra(notas del intro)
Coro 1 x2
Coro 2


bueno esa es la cancion! espero que les sirva
cualquier consulta/sugerencia les dejo mi mail
bassesmen@ saludos de argentina DTB!
Suggest correction
Give kudos to tab author, rate the tab!
1 2 3 4 5
comments
print report bad tab
guest
Wanna post a correction for this tab? Suggest correction