Oops, an error
Loading. Please wait.

Te Rendimos Adoración Tab

37 views 1 this week
no commentswrite comment
1 2 3 4 5
3 more votes to show rating
add to favorites
launch autoscroll
font size
0
reset
how to read this tab
guitar tuner
Autoscroll
slow
fast
+/-
esc
set tempo
stop
Intro:  A - D - Bm - G  |  A - D - Bm - G - D - E |


   A            D
//Santo, oh oh oh,
Bm         G
Digno, Cordero de Dios
A            D
Santo, oh oh oh,
Bm            G      D     E
Digno, te rendimos adoración//


Aca  les dejo la melodía, nota por nota,
usando solo la cuerda 2ª(si B)

 (12)(10)(5)(3)(10)
  B   A   E  D  A
 San to, oh oh oh

(12)(10)(14)(15)(14)(12)(10)
 B   A   C#  D  C#   B  A
 Dig no, Cor de ro  de Dios

(12)(10)(5)(3)(10)
 B   A   E  D  A
 San to, oh oh oh
(12)(10)(12)(14)(15) (14)(10)(15)(14)(12)           (17)
  B   A   B   C#   D   C#  A   D   C# B <---------|
 Dig no, te  ren  di  mos a   do  ra ción        |
                                                 |
|-------------------------------------------------
|
este SI, lo pueden remplazar
por un MI (E) 2ª cuerda traste 17 si es un punteo en la guitarra
antes de entrar al solo


SOlO: F-G-F-G-F-G-A-F-G-F-G-F/A-G/B-A

         min 3:00
e -----------------------------------                       ********
B -13-s-15-s-17-15s13s15-aca en el traste 15 termina con un armonico
G ----------------------------------
D -----------------------------------
A -----------------------------------
E -----------------------------------

e -----------------------------------
B -13--13-15b17b15-------------------
G -----------------12----------------
D -----------------------------------
A -----------------------------------
E -----------------------------------

e -----------------------------------
B -----------10---13-12-10-8---------
G -9b10-10-12------------------------
D -----------------------------------
A -----------------------------------
E -----------------------------------

e -----------------------------------
B -15-15h17-15 15h17-14--------------
G ----------------------14---9-------
D -----------------------------------
A -----------------------------------
E -----------------------------------

e -----------------------------------
B -10-8-10--13-15--12-10-8-----------
G -----------------------------------
D -----------------------------------
A -----------------------------------
E -----------------------------------

e ----------------------15--15-------
B --10-10-8--10-13--17-15------------
G -----------------------------------
D -----------------------------------
A -----------------------------------
E -----------------------------------
** En el ultimo golpe (e 15) se vuelve a usar el armonico****

e -17-19-20---19-20s22---22b24*---21
B -----------------------------------
G -----------------------------------
D -----------------------------------
A -----------------------------------
E -----------------------------------
*Esta aclaracion es para los que tienen
guitarra de 22 trastes como yo, pero si es de 24,
pueden usar sin problema el traste 24 de la
cuerda de mi aguda, es La nota
mas aguda de su guitarra


       F                    G
A ti sea la gloria por los siglos
        F              G
Hoy postrados a tus pies
       F                G
Derramamos nuestro perfume
       A
Para ti, Rey de Reyes


2º SOLO min. 5:21
e -17-17--20---20------20-19---19-----
B ------------------------------------
G ------------------------------------
D ------------------------------------
A ------------------------------------
E ------------------------------------

e 19-17---17-----17-15---19-15-19---
B ----------------------------------
G ----------------------------------
D ----------------------------------
A ----------------------------------
E ----------------------------------
Despues, viene una parte muy rápida de juego con los dedos ,
y es la escala de DO mayor, tengo un poco de dudas, pero como
lo saque igual suena bien, no a La perfeccion, pero suena asi :

e -20-20-20--19-17-------------------------------
B -----------------20-18-17-18-20-18-17----------
G --------------------------------------19-20-20-
D -----------------------------------------------
A -----------------------------------------------
E -----------------------------------------------

e -20-20-20-19-17----19-----------15----15----------
B ----------------20-----17-17h15----15----15----14-
G --------------------------------------------------
D --------------------------------------------------
A --------------------------------------------------
E --------------------------------------------------


Leyenda:
h:hammer on
s: sllde
b: bending

*******  <------ Esta aclaración la puse, abajo y/o arriba de palabra
armonico,si no saben que es un armonico,pueden buscar demos en youtube
o en la red,búsquenlos como armonicos,armonicos artificiales.


Es lo que muy comúnmente se conoce como
cuando hacen ?chillar? a la guitarra,
escuchen las partes del solo,
y verán de que es lo que estoy hablando.

Pues yo creo que con el tiempo, el oído se va a desarrollando mas ,
esta es mi 4ª colaboración, junto con la de AVIVANOS
que fue la primera,la ME VUELVO A TI, y la de MANDA LLUVIA,
solo que esta la rechazo la pagina , por que ya había otra,
y bueno en fin, pienso que esta está un poco mas acercada
a la original,y solo me nace decirles que sigan adelante chavos,
ustedes también pueden,inténtenlo y verán que si,
cualquier duda, que tengan o sugerencia serán bien aceptadas
a mi correo 
o para platicar un rato, es jesus09_adc@


mi correo de nuevo jesus09_ADC@
Suggest correction
Give kudos to tab author, rate the tab!
1 2 3 4 5
comments
print report bad tab
guest
Wanna post a correction for this tab? Suggest correction