Oops, an error
Loading. Please wait.

Mi Vida Sabe A Tí Tab

76 views 3 this week
no commentswrite comment
1 2 3 4 5
3 more votes to show rating
add to favorites
launch autoscroll
font size
0
reset
how to read this tab
guitar tuner
×
Best way to learn
"Mi Vida Sabe A Tí"
Autoscroll
slow
fast
+/-
esc
set tempo
stop
Esta transcripción incluye el punteo en el intro,
le añadí los bajos para guitarra en el coro y el
arpegio en el precoro.

     C#m                  F#     B                   G#m
e |---11-9-11-9-11-----------|---9-7-9-7-9--------------|
B |-9-11-9-11-9-11-9-9-11-11-|-7-9-7-9-7-9-7-7-9-9-10-9-|
G |----------------9-9-11-11-|-8-----------8-8-9-9--9-9-|
D |--------------------------|--------------------------|
A |--------------------------|--------------------------|
E |--------------------------|--------------------------|

     C#m             D#7       G#m                 C#m   G#m
e |---7-6-7-6-7---------|-------4-6-7-|-6-4-6-4-6-|-4-3-3-4-|
B |-5-7-6-7-6-7-5-5---4-|-4-6-7-------|-7-5-7-5-7-|-5-2-3-4-|
G |-6-----------6-6-6-4-|-------------|-----------|-------4-|
D |---------------------|-------------|-----------|-------6-|
A |---------------------|-------------|-----------|---------|
E |---------------------|-------------|-----------|---------|

G#m                            C#m
  Es que no dejo de pensar en ti,
F#                              B
  desde que por primera vez te vi,
G#m                            C#m
  estabas bella ahi como eres tu,
F#                           B    G#m
  con tu camiseta blanca y azul
                              e |----4-|
                              B |---4--|
                              G |--4---|
                              D |-6----|
                              A |------|
                              E |------|


PRECORO:
                C#m
  no me parecia posible que
             e |---------4-----4-|
             B |-----5-------5---|
             G |---6---6---6-----|
             D |-6---------------|
             A |-----------------|
             E |-----------------|
               F#
  entre tanta gente ahi
           e |---------2-----2-|
           B |-----2-------2---|
           G |---3---3---3-----|
           D |-4---------------|
           A |-----------------|
           E |-----------------|
            B                G#m
  pudieses tu   fijarte  en  mi
        e |---------2-----2-|---------2-----2-|
        B |-----4-------4---|-----4-------4---|
        G |---4---4---4-----|---4---4---4-----| ()Tono para
        D |-4---------------|-6-------(2-1----|   bajo
        A |-----------------|-------------4)--|
        E |-----------------|-----------------|

CORO:
   C#m                     F#
y ahora casi ya no puedo estar,
                       e |---------|
                       B |---------|
                       G |---------|
                       D |-------1-|
                       A |-1-2-4---|
                       E |---------|
     B                        G#m
sin verte sin pensar en donde estas,
                             e |---------|
                             B |---------|
                             G |---------|
                             D |---------|
                             A |---1-2-4-|
                             E |-4-------|
    C#m                      D#7
que tal ayer te fue con los demas,
                           e |---------|
                           B |---------|
                           G |---------|
                           D |---------|
                           A |-----1-2-|
                           E |-3-4-----|
   G#m
haber te quiero quien
        G#m
lo dice ya
      e |----4-|
      B |---4--|
      G |--4---|
      D |-6----|
      A |------|
      E |------|

G#m                           C#m
   cuando me sonreiste sin hablar,
F#                            B
   fue como si empezara yo volar,
G#m                           C#m
   parece inevitable nuestro amor
F#                             B    G#m
   ya no tenemos miedo ni al dolor
                                  e |----4-|
                                  B |---4--|
                                  G |--4---|
                                  D |-6----|
                                  A |------|
                                  E |------|

PRECORO:
              C#m
  prometeme de nuevo que
            e |---------4-----4-|
            B |-----5-------5---|
            G |---6---6---6-----|
            D |-6---------------|
            A |-----------------|
            E |-----------------|
            F#
  es cierto que es asi
         e |---------2-----2-|
         B |-----2-------2---|
         G |---3---3---3-----|
         D |-4---------------|
         A |-----------------|
         E |-----------------|
           B                 G#m
  que estas buscando solo a mi
        e |---------2-----2-|---------2-----2-|
        B |-----4-------4---|-----4-------4---|
        G |---4---4---4-----|---4---4---4-----| ()Tono para
        D |-4---------------|-6-------(2-1----|   bajo
        A |-----------------|-------------4)--|
        E |-----------------|-----------------|

CORO:
   C#m                     F#
y ahora casi ya no puedo estar,
                       e |---------|
                       B |---------|
                       G |---------|
                       D |-------1-|
                       A |-1-2-4---|
                       E |---------|
     B                        G#m
sin verte sin pensar en donde estas,
                             e |---------|
                             B |---------|
                             G |---------|
                             D |---------|
                             A |---1-2-4-|
                             E |-4-------|
    C#m                      D#7
que tal ayer te fue con los demas,
                           e |---------|
                           B |---------|
                           G |---------|
                           D |---------|
                           A |-----1-2-|
                           E |-3-4-----|
   G#m                        G#
haber te quiero quien lo dice ya

   C#m                    F#
Tu jurame que nunca acabara,
                       e |---------|
                       B |---------|
                       G |---------|
                       D |-------1-|
                       A |-1-2-4---|
                       E |---------|
     B                     G#m
que no es la primavera que se va,
                             e |---------|
                             B |---------|
                             G |---------|
                             D |---------|
                             A |---1-2-4-|
                             E |-4-------|
    C#m                           D#7
lo que mas quiero yo es tenerte aqui,
                           e |---------|
                           B |---------|
                           G |---------|
                           D |---------|
                           A |-----1-2-|
                           E |-3-4-----|
    G#m
mi vida ahora
            G#m
ya me sabe a ti
         e |----4-|
         B |---4--|
         G |--4---|
         D |-6----|
         A |------|
         E |------|

PUNTEO:
     C#m                  F#     B                   G#m
e |---11-9-11-9-11-----------|---9-7-9-7-9--------------|
B |-9-11-9-11-9-11-9-9-11-11-|-7-9-7-9-7-9-7-7-9-9-10-9-|
G |----------------9-9-11-11-|-8-----------8-8-9-9--9-9-|
D |--------------------------|--------------------------|
A |--------------------------|--------------------------|
E |--------------------------|--------------------------|

     C#m             D#7       G#m                 C#m   G#
e |---7-6-7-6-7---------|-------4-6-7-|-6-4-6-4-6-|-4-3-3-4-|
B |-5-7-6-7-6-7-5-5---4-|-4-6-7-------|-7-5-7-5-7-|-5-2-3-4-|
G |-6-----------6-6-6-4-|-------------|-----------|-------5-|
D |---------------------|-------------|-----------|-------6-|
A |---------------------|-------------|-----------|---------|
E |---------------------|-------------|-----------|---------|


   C#m                    F#
tu jurame que nunca acabara,
     B                     G#m
que no es la primavera que se va,
    C#m                          D#7
lo que mas quiero yo es tenerte aqui,
    G#m
mi vida ahora ya me sabe a ti

Gracias
Suggest correction
Give kudos to tab author, rate the tab!
1 2 3 4 5
comments
print report bad tab
guest
You may want to rate the tab now too:
select rating
Wanna post a correction for this tab? Suggest correction