Oops, an error
Loading. Please wait.

Así Es El Tab

39 views 1 this week
no commentswrite comment
1 2 3 4 5
3 more votes to show rating
add to favorites
launch autoscroll
font size
0
reset
how to read this tab
guitar tuner
×
Best way to learn
"Así Es El"
Autoscroll
slow
fast
+/-
esc
set tempo
stop
Este es solo el intro (bien hecho), si alguien quiere el archivo midi
escribeme a joel_hacker@ y si alguien tiene la tablatura de la
canción completa me la puede mandar, es que es muy dificil sacarla de oido

  Q=60
 4/4
  Gtr I

|-----|-0-----0---0--1-0-|--------------------|-----------------1--|
|-5---|-0-----0---0--0-0-|-1-----1---1--1-3---|-5------4-3------3--|
|-5-7-|-----0--------0-0-|-2-----2---1--1-1---|-5------4-3------3--|
|-6---|---2----------2-2-|-----2--------------|--------------------|
|-7---|-3------------3-3-|---3-------1--1-1---|-----------------3--|
|-----|------------------|-1------------------|-5------4-3---------|


|------8-5----*|----|
|-1----6---8--*|----|
|-2----5---7--*|----|
|-2----0---6--*|----|
|-3--------7--*|----|
|-1-----------*|----|
Suggest correction
Give kudos to tab author, rate the tab!
1 2 3 4 5
comments
print report bad tab
guest
You may want to rate the tab now too:
select rating
Wanna post a correction for this tab? Suggest correction