Oops, an error
Loading. Please wait.

Buscadme Y Viviréis Tab

32 views 1 this week
no commentswrite comment
1 2 3 4 5
3 more votes to show rating
add to favorites
launch autoscroll
font size
0
reset
how to read this tab
guitar tuner
Autoscroll
slow
fast
+/-
esc
set tempo
stop
Help us to improve Ultimate-Guitar.com Take our survey!
×
esta version esta corregida ya que habia una pero los acordes no
 estaban bien..!!
hay una version de esta cancion en acustica de Generacion 3.16
y va con estos
mismos acordes espero les guste,a mi me encanto. Dios les bendiga.
Tambien pueden utilizar los acordes como quintos es decir en vez de B,que
el acorde sea B5 asi de igual manera con los otros acordes.

INTRO
D#m   B F#   C# (x2)

E---------------------------------------------|
B--11-11-11-11-9-11-12-11-11-11-7-7-9-9-6-----|
G---------------------------------------------|
D---------------------------------------------|
A---------------------------------------------|
E---------------------------------------------|
                                               x2
E-------------------------------9-9-9-9-------|
B--11-11-11-11-9-11-12-11-11-11---------------|
G---------------------------------------------|
D---------------------------------------------|
A---------------------------------------------|
E---------------------------------------------|

VERSO 1
       D#m   B F#    C#
Eres Dios sin principio
     D#m   B F#    C#
Creador infinito
        B
Tú nos viste aquí
            D#m    C#          B  (C#)
Cuando llamaste la tierra Y el mundo a existencia

VERSO 2
       D#m   B F#   C#
Eres Dios de victoria
       D#m   B F#   C#
La historia es tu historia
         B
Tú quien fuiste y es
               D#m   C#      B
Y quien por siempre será Viviré por tu gloria

CORO 1
El coro va acompañado con esto en la primera guitarra
Lo repite por cada nota

E---------4-4-2-2-2-2------------|
B--------------------------------|
G-----3-3------------------------|

       F#       C#             D#m
Y correré Arde fuego en mi corazón
       B              F#
Nada puede apagar tu amor
    C#     D#m       B
Mi Dios la Gloria te daré ¡¡¡Jesús!!!!

INSTRUMENTAL
D#m   B F#   C#


E---------------------------------------------|
B--11-11-11-11-9-11-12-11-11-11-7-7-9-9-6-----|
G---------------------------------------------|
D---------------------------------------------|
A---------------------------------------------|
E---------------------------------------------|
                                               x2
E-------------------------------9-9-9-9-------|
B--11-11-11-11-9-11-12-11-11-11---------------|
G---------------------------------------------|
D---------------------------------------------|
A---------------------------------------------|
E---------------------------------------------|
VERSO 3
        D#m    B F#   C#
Eres Dios, somos libres
       D#m    B F#   C#
En nosotros tú vives
        B
Tú nos viste aquí
          D#m   C#         B
Antes de resucitar Y entregarnos tú promesa

CORO 1
El coro va acompañad con esto en la primera guitarra

E---------4-4-2-2-2-2------------|
B--------------------------------|
G-----3-3------------------------|

       F#       C#             D#m
Y correré Arde fuego en mi corazón
       B              F#
Nada puede apagar tu amor
    C#     D#m       B
Mi Dios la Gloria te daré

CORO 2
El coro va acompañad con esto en la primera guitarra

E---------4-4-2-2-2-2------------|
B--------------------------------|
G-----3-3------------------------|

       F#         C#          D#m
Y correré Con mi vida te alabaré
       B             F#
Y tu nombre famoso haré
    C#       D#m          B
Mi Dios la gloria te daré Jesús

Instrumental:
D#m   B F#   C#

E---------------------------------------------|
B--11-11-11-11-9-11-12-11-11-11-7-7-9-9-6-----|
G---------------------------------------------|

E-------------------------------9-9-9-9-------|
B--11-11-11-11-9-11-12-11-11-11---------------|
G---------------------------------------------|X2

D#m   B F#   C#

CORO 1
El coro va acompañad con esto en la primera guitarra

E---------4-4-2-2-2-2------------|
B--------------------------------|
G-----3-3------------------------|

       F#       C#             D#m
Y correré Arde fuego en mi corazón
       B              F#
Nada puede apagar tu amor
     C#     D#m       B
Mi Dios la Gloria te daré

CORO 2
El coro va acompañad con esto en la primera guitarra

E---------4-4-2-2-2-2------------|
B--------------------------------|
G-----3-3------------------------|

       F#         C#          D#m
Y correré Con mi vida te alabaré
       B             F#
Y tu nombre famoso haré
    C#       D#m       B
Mi Dios la gloria te daré Jesús

fin
D#m   B F#   C#
E---------------------------------------------|
B--11-11-11-11-9-11-12-11-11-11-7-7-9-9-6-----|
G---------------------------------------------|
                                               X2
E-------------------------------9-9-9-9-------|
B--11-11-11-11-9-11-12-11-11-11---------------|
Suggest correction
Give kudos to tab author, rate the tab!
1 2 3 4 5
comments
print report bad tab
guest
You may want to rate the tab now too:
select rating
Wanna post a correction for this tab? Suggest correction