Oops, an error
Loading. Please wait.

A Quien Iré Bass Tab

42 views 1 this week
no commentswrite comment
1 2 3 4 5
3 more votes to show rating
add to favorites
launch autoscroll
font size
0
reset
guitar tuner
Autoscroll
slow
fast
+/-
esc
set tempo
stop
Help us to improve Ultimate-Guitar.com Take our survey!
×
A QUIEN IRE

::InTrO::
   G            A            B            F#
E|-3---------3|-5---------5|-7---------7|-2---------2||
A|------------|------------|------------|------------||
D|------------|------------|------------|------------||
G|------------|------------|------------|------------||

   G            A            B            F#
E|-3---------3|------------|-7--------7-|-2---------2||
A|------------|-0---------0|------------|------------||
D|------------|------------|--------9---|------------||
G|------------|------------|------------|------------||

   G            A            B            A
E|-3---------3|------------|----------2-|-5----------||
A|------------|-0---------0|-2----------|------------||
D|------------|------------|------------|------------||
G|------------|------------|------------|------------||


::EsTrOfA::
   D                         Bm
E|------------|-----------5|------------|------------||
A|-5---------5|-5-------5--|-2---------2|-2----------||
D|------------|------------|------------|------------||
G|------------|------------|------------|------------||

   G                         D            A
E|-3---------3|-3----------|------------|------------||
A|------------|------------|-5---------5|-0---------7||
D|------------|------------|------------|------------||
G|------------|------------|------------|------------||


::CoRo::
   D            F#           G
E|------------|-2---2-2----|-3---3-3---3|-3---3-3----||
A|-5---5-5----|------------|---------5--|------------||
D|------------|------------|------------|------------||
G|------------|------------|------------|------------||

   D            F#           G
E|------------|-2---2-2----|-3---3-3----|-3---3-3----7-10-|
A|-5---5-5----|------------|----------2-|-----------------|
D|------------|------------|------------|-----------------|
G|------------|------------|------------|-----------------|

   E                          G           A
E|-0---0-0----|-0---0-0---0-|-3---3-3---|-------------||
A|------------|----------7--|-----------|-0---0-0----0||
D|------------|-------------|-----------|-------------||
G|------------|-------------|-----------|-------------||

   D            F#            G              A
E|------------|-2---2-2-----|-3---3-3------|------------||
A|-5---5-5----|-------------|----------5---|---------10s||...Estrofa...
D|------------|-------------|------------7-|-5--5-5-----||
G|------------|-------------|--------------|------------||


::InTeRmEdIo::
   D            F#            G              A     Bb
E|------------|-2---2-2-----|-3---3-3---3--|-5---5-6----5||
A|-5---5-5----|-------------|----------5---|-------------||
D|------------|-------------|--------------|-----------8-||
G|------------|-------------|--------------|-------------||

   Bm           Bm       A    G             A      Bb
E|------------|----------5--|-3---3-3---3-|-5------6-----||
A|-2---2-2----|-2---2-2-----|-------------|--------------||
D|------------|-------------|-------------|--------------||
G|------------|-------------|-------------|--------------||

   Bm           A              D
E|------------|-5------12---|-10----------||
A|-2---2-2---2|-----------12|-------------||
D|------------|-------------|-------------||
G|------------|-------------|-------------||


::FiNaL::
   E            A             C              D
E|----------7-|-5-----------|-8-----------|-10-----------||
A|-7----------|-------------|-------------|--------------||
D|------------|-------------|-------------|--------------||
G|------------|-------------|-------------|--------------||


P.D  Escuchenla y con eso ordenan las figuras, está canción es un poco
fácil y además tiene un gran mensaje....Recuerden la Gloria y la Honra es
siempre para el Barbas y no para nosotros...
Suggest correction
Give kudos to tab author, rate the tab!
1 2 3 4 5
comments
print report bad tab
guest
You may want to rate the tab now too:
select rating
Wanna post a correction for this tab? Suggest correction