Oops, an error
Loading. Please wait.

Celebraré Me Alegraré Bass

44 views 3 this week
no commentswrite comment
1 2 3 4 5
3 more votes to show rating
add to favorites
×
Save as Personal and add changes to this tab that will be seen only by you. Learn more ›
×
You can save this tab as Personal to edit and correct it or add notes. All changes will be seen only by you. Learn more »
save as personal
new!
launch autoscroll
font size
0
reset
guitar tuner
Autoscroll
slow
fast
+/-
esc
set tempo
stop
Narracion: La Celebracion
:Intro:

G]:------------:----------:------------:----------:
D]:------------:----------:------------:----------:
A]:------------:3-3----1-0:------------:3-3----1-0:
E]:3-3---1-1---:----------:3-3---1-1---:----------:

G]:------------:----------:------------:----------:
D]:------------:----------:------------:----------:
A]:------------:3-3----1-0:------------:3-3----1-1:
E]:3-3---1-1---:----------:3-3---1-1---:----------:

:Coro:

Oh, oh, oh, oh...

G]:------------:----------:------------:----------:
D]:------------:----------:------------:----------:
A]:------------:3-3----1-0:------------:3-3----1-1:
E]:3-3---1-1---:----------:3-3---1-1---:----------:

Oh, oh, oh, oh...

G]:------------:----------:------------:----------:
D]:------------:----------:------------:----------:
A]:------------:3-3----1-0:------------:3-3----1-1:
E]:3-3---1-1---:----------:3-3---1-1---:----------:

:Estrofa:

Tengo perdon, tengo salvacion...

G]:-----------:----------:-------------:-----------------:
D]:-----------:----------:-------------:-----------------:
A]:----1-3----:----------:----1-3------:-----------------:
E]:3-------3-3:1-1-1-3--1:3---------3-3:1-1--1-1-1--1-1-1:

Tengo su amor, su aceptacion...

G]:-----------:------------------:-------------:-----------------:
D]:-----------:------------------:-------------:-----------------:
A]:----1-3----:------------------:----1-3------:-----------------:
E]:3-------3-3:1-1--1-1-1---1-1-1:3---------3-3:1-1--1-1-1--1-1-1:

ver...

G]:---------------:
D]:---------------:
A]:5-5-5-5-5-5-5-5:
E]:---------------:

:Coro:
:Estrofa:
:Coro:
:Puente:

El me dio un manto...

G]:---------------:---------------:---------------:---------------:
D]:---------------:---------------:---------------:---------------:
A]:3-3-3-3-3-3-3-3:3-3-3-3-3-3-3-3:6-6-6-6-6-6-6-6:6-6-6-6-6-6-6-6:
E]:---------------:---------------:---------------:---------------:

dia...

G]:------------:
D]:------------:
A]:5--5-5-5-5-5:
E]:------------:

:Intermedio:(Solo de Guitarra)

G]:------------:----------:------------:-------------:
D]:------------:----------:------------:-------------:
A]:------------:----------:------------:-------------:
E]:3-3------3-1:0-0----1-1:3-3------3-1:0-0-------1-1:

G]:---------------:---------------:--------------:---------------:
D]:---------------:---------------:--------------:---------------:
A]:---------------:---------------:--------------:---------------:
E]:3-3-3-3-3-3-3-1:0-0-0-0-1-1-1-1:3-3-3-3--3-3-1:0-0-0-0-1-1-1-1:

:Solo voces:
:Voces y Guitarra:
:Golpes antes del Coro:

Me alegrare...

G]:----------:
D]:----------:
A]:-------1-3:
E]:----------:

:Coro:(Varias veces)
:Final:

Celebrare!!!...

G]:---------------:-----------:-------------:
D]:------3-3-3-3-5:-----------:-------------:
A]:---------------:-----------:-------------:
E]:---------------:3----------:1-3----------:
Suggest correction
Give kudos to tab author, rate the tab!
1 2 3 4 5
comments
print report bad tab
guest
Wanna post a correction for this tab? Suggest correction