Oops, an error
Loading. Please wait.

Cuan Bello Es El Señor Tab

850 views 9 this week
no commentswrite comment
1 2 3 4 5
3 more votes to show rating
add to favorites
launch autoscroll
font size
0
reset
how to read this tab
guitar tuner
×
Best way to learn
"Cuan Bello Es El Señor"
Autoscroll
slow
fast
+/-
esc
set tempo
stop
solo de Cuan Bello es el señor 25 conmemorativo, guitarra limpia.

             F6(9)
E|--------|--12--13-12-----------|-----------------------------------|
B|--13-15-|--------------13------|---15------------------------8-----|
G|--------|-------------------14-|-------14--14--12---------10-------|
D|--------|----------------------|-----------------------------------|
A|--------|----------------------|-----------------------------------|
E|--------|----------------------|-----------------------------------|

   Gb6(9)
E|-------------------------------|-----------------------------------|
B|-9-8---------------------------|-----------------------------------|
G|-----10-8-------8------------8-|-----------------------------------|
D|----------11-10----11-10/10----|--10-11-10-8--10-------------/10---|
A|-------------------------------|-----------------------------------|
E|-------------------------------|-----------------------------------|

   F6(9)
E|----------------------|-12--13-12----------------------------------|
B|----------------10-13-|------------10-10---------------------------|
G|------9-12-9-10-------|--------------------------------------------|
D|-7/10-----------------|--------------------------------------------|
A|----------------------|--------------------------------------------|
E|----------------------|--------------------------------------------|

   Ebm7(11)
E|------------------------------------------|-13-X--------------------------|
B|-13-11-13-13-11-9-------------------11-13-|-------------11----------------|
G|------------------11-10----10-11-13-------|------11 10------10--8--10-12--|
D|------------------------13----------------|-------------------------------|
A|------------------------------------------|-------------------------------|
E|------------------------------------------|-------------------------------|

    F6(9)
E|----------------------|-------------------------------------------|
B|----------------------|-------------------------------------------|
G|-/9--12-12/9-9--------|-------------------------------------------|
D|----------------10----|--/12-10-10--------------------------------|
A|-------------------12-|-------------------------------------------|
E|----------------------|-------------------------------------------|

   Gbmaj7                             Fmaj7
E|-----------------11-|-13--9-------|-------------------------------|
B|-/9--7--6---7-9-----|--------11---|-------------------------10-13-|
G|-----------------8--|-10--6-------|---------------9-12-9-10-------|
D|-/6--4--3---4-6-----|--------8----|-----7-10-7-10-----------------|
A|--------------------|-------------|-7-8---------------------------|
E|--------------------|-------------|-------------------------------|

                           Ebm7                Final
E|-12-11-10----/13--/13-|--13--11-------11----------------------------|
B|----------------------|---------14-11----14-11----14-11-------11----|
G|----------------------|------------------------13-------13-11-------|
D|----------------------|---------------------------------------------|
A|----------------------|---------------------------------------------|
E|----------------------|---------------------------------------------|

                                                     F6(9)
E|-------------------------------------------------|------------------|
B|-------------------------------------------------|------------------|
G|-13-11----13-11-------11-------------------------|------------------|
D|-------13-------13-11----13-11----13-11----------|------------------|
A|-------------------------------13-------13-11-9--|--8---------------|
E|-------------------------------------------------|------------------|

100% exacto, ojo con los ligados deben escucharlo muy bien.

saludos.
Suggest correction
Give kudos to tab author, rate the tab!
1 2 3 4 5
comments
print report bad tab
guest
You may want to rate the tab now too:
select rating
Wanna post a correction for this tab? Suggest correction