Oops, an error
Loading. Please wait.

Cuan Bello Es El Señor Bass Tab

79 views 1 this week
no commentswrite comment
1 2 3 4 5
3 more votes to show rating
add to favorites
launch autoscroll
font size
0
reset
guitar tuner
Autoscroll
slow
fast
+/-
esc
set tempo
stop
Help us to improve Ultimate-Guitar.com Take our survey!
×
esta es una tab q encontre para guitar pro... espero les sirva...

Title: Cuan bello es el Señor
Tempo = 151
bass

Legend
L - tied note
x - dead note
h - hammer on/pull off
b - bend
s - slide
~ - vibrato
g - ghost note
] - accentuated note
t - trill
M - palm mute
. - staccato
P - popping (bass)
S - slapping (bass)
+ - tapping
W - wide vibrato
[ - fade in
w - whammy bar
= - tremolo picking
v - brush up
^ - brush down
V - pick stroke up
n - pick stroke down


G |-------|-------|-------|-------|----------------------------|
D |-------|-------|-------|-------|--3--------3-----------3L---|
A |-------|-------|-------|-------|--------------3-------------|
E |-------|-------|-------|-------|----------------------------|


----------------------------|----------------------------|
--3--------3----------------|--4--------4-----------4L---|
--------------3-------------|--------------4-------------|
----------------------------|----------------------------|


----------------------------|----------------------------|
--4--------4----------------|--3--------3-----------3L---|
--------------4-------------|--------------3-------------|
----------------------------|----------------------------|


----------------------------|----------------------------|
--3--------3----------------|--4--------4-----------4L---|
--------------3-------------|--------------4-------------|
----------------------------|----------------------------|


----------------------------|-------|-------|--0--------0-----------0L---|
--4--------4----------------|--3L---|--3----|--------------0-------------|
--------------4-------------|-------|-------|----------------------------|
----------------------------|-------|-------|----------------------------|


--0--------0----------------|----------------------------|
--------------0-------------|----------------------------|
----------------------------|--3--------3-----------3L---|
----------------------------|--------------3-------------|


----------------------------|----------------------------|
----------------------------|--3--------3-----------3L---|
--3--------3----------------|--------------3-------------|
--------------3-------------|----------------------------|


----------------------------|----------------------------|
--3--------3----------------|--0--------0-----------0L---|
--------------3-------------|--------------0-------------|
----------------------------|----------------------------|


----------------------------|--0--------0-----------0L---|
--0--------0----------------|--------------0-------------|
--------------0-------------|----------------------------|
----------------------------|----------------------------|


--0--------0----------------|----------------------------|
--------------0-------------|----------------------------|
----------------------------|--3--------3-----------3L---|
----------------------------|--------------3-------------|


----------------------------|----------------------------|
----------------------------|--3--------3-----------3L---|
--3--------3----------------|--------------3-------------|
--------------3-------------|----------------------------|


----------------------------|----------------------------|-------|
--3--------3----------------|--3--------3----------------|--1----|
--------------3-------------|--------------3-------------|-------|
----------------------------|----------------------------|-------|


--0--------0-----------0L---|--0--------0----------------|
--------------0-------------|--------------0-------------|
----------------------------|----------------------------|
----------------------------|----------------------------|


----------------------------|----------------------------|
----------------------------|----------------------------|
--3--------3-----------3L---|--3--------3----------------|
--------------3-------------|--------------3-------------|


----------------------------|----------------------------|
--3--------3-----------3L---|--3--------3----------------|
--------------3-------------|--------------3-------------|
----------------------------|----------------------------|


----------------------------|----------------------------|
--0--------0-----------0L---|--0--------0----------------|
--------------0-------------|--------------0-------------|
----------------------------|----------------------------|

--0--------0-----------0L---|--0--------0----------------|
--------------0-------------|--------------0-------------|
----------------------------|----------------------------|
----------------------------|----------------------------|

----------------------------|----------------------------|
----------------------------|----------------------------|
--3--------3-----------3L---|--3--------3----------------|
--------------3-------------|--------------3-------------|

----------------------------|----------------------------|
--3--------3-----------3L---|--3--------3----------------|
--------------3-------------|--------------3-------------|
----------------------------|----------------------------|


----------------------------|-------|--3--------3-----------3L---|
----------------------------|--3----|--------------3-------------|
--3--------3----------------|-------|----------------------------|
--------------3-------------|-------|----------------------------|


--3--------3----------------|--3--------3-----------3L---|
--------------3-------------|--------------3-------------|
----------------------------|----------------------------|
----------------------------|----------------------------|


--3--------3----------------|--2--------2--2--------2L---|
--------------3-------------|----------------------------|
----------------------------|----------------------------|
----------------------------|----------------------------|


--2--------2--2-------------|----------------------------|
----------------------------|--1--------1--1--------0L---|
----------------------------|----------------------------|
----------------------------|----------------------------|


----------------------------|--0--------0-----------0L---|
--0--------0--0-------------|--------------0-------------|
----------------------------|----------------------------|
----------------------------|----------------------------|


--0--------0----------------|----------------------------|
--------------0-------------|----------------------------|
----------------------------|--3--------3-----------3L---|
----------------------------|--------------3-------------|


----------------------------|----------------------------|
----------------------------|--3--------3-----------3L---|
--3--------3--3-------------|--------------3-------------|
----------------------------|----------------------------|

----------------------------|----------------------------|
--3--------3----------------|-----------------------3L---|
--------------3-------------|--3--------3----------------|
----------------------------|--------------3-------------|


----------------------------|--3--------3-----------3L---|
--3--------3--3-------------|--------------3-------------|
----------------------------|----------------------------|
----------------------------|----------------------------|


--3--------3----------------|--3--------3-----------3L---|
--------------3-------------|--------------3-------------|
----------------------------|----------------------------|
----------------------------|----------------------------|


--3--------3----------------|--2--------2--2--------2L---|
--------------3-------------|----------------------------|
----------------------------|----------------------------|
----------------------------|----------------------------|


--2--------2--2-------------|----------------------------|
----------------------------|--1--------1--1--------0L---|
----------------------------|----------------------------|
----------------------------|----------------------------|


----------------------------|--0--------0-----------0L---|
--0--------0--0-------------|--------------0-------------|
----------------------------|----------------------------|
----------------------------|----------------------------|


--0--------0----------------|-------|-------|----------------------------|
--------------0-------------|-------|-------|--3--------3-----------3L---|
----------------------------|--3L---|--3----|--------------3-------------|
----------------------------|-------|-------|----------------------------|


----------------------------|----------------------------|
--3--------3----------------|--4--------4-----------4L---|
--------------3-------------|--------------4-------------|
----------------------------|----------------------------|


----------------------------|----------------------------|
--4--------4----------------|--3--------3-----------3L---|
--------------4-------------|--------------3-------------|
----------------------------|----------------------------|

----------------------------|----------------------------|
--3--------3----------------|--1--------1--1-------------|
--------------3-------------|-----------------------4L---|
----------------------------|----------------------------|


----------------------------|----------------------------|
----------------------------|--3--------3-----------3L---|
--4--------4--4-------------|--------------3-------------|
----------------------------|----------------------------|


----------------------------|----------------------------|
--3--------3----------------|--4--------4-----------4L---|
--------------3-------------|--------------4-------------|
----------------------------|----------------------------|


----------------------------|----------------------------|
--4--------4----------------|--3--------3-----------3L---|
--------------4-------------|--------------3-------------|
----------------------------|----------------------------|


----------------------------|----------------------------|
--3--------3----------------|--1--------1--1--------1L---|
--------------3-------------|----------------------------|
----------------------------|----------------------------|


----------------------------|----------------------------|
--1--------1----------------|--3--------3-----------3L---|
--------------4-------------|--------------3-------------|
----------------------------|----------------------------|


----------------------------|----------------------------|
--3--------3----------------|--4--------4-----------4L---|
--------------3-------------|--------------4-------------|
----------------------------|----------------------------|


----------------------------|----------------------------|
--4--------4----------------|--3--------3-----------3L---|
--------------4-------------|--------------3-------------|
----------------------------|----------------------------|


----------------------------|----------------------------|
--3--------3----------------|--1--------1--1-------------|
--------------3-------------|-----------------------4L---|
----------------------------|----------------------------|


----------------------------|----------------------------|
----------------------------|--3--------3-----------3L---|
--4--------4--4-------------|--------------3-------------|
----------------------------|----------------------------|


----------------------------|----------------------------|
--3--------3----------------|--4--------4-----------4L---|
--------------3-------------|--------------4-------------|
----------------------------|----------------------------|


----------------------------|----------------------------|
--4--------4----------------|--3--------3-----------3L---|
--------------4-------------|--------------3-------------|
----------------------------|----------------------------|


----------------------------|----------------------------|
--3--------3----------------|--1--------1--1--------1L---|
--------------3-------------|----------------------------|
----------------------------|----------------------------|


----------------------------|----------------------------|
--1--------1----------------|----------------------------|
--------------4-------------|--6--------6--------6L------|
----------------------------|----------------------------|


----------------------------|----------------------------|
----------------------------|----------------------------|
--6--6--------6--------7L---|--7-----7--------7----------|
----------------------------|----------------------------|


----------------------------|----------------------------|
----------------------------|----------------------------|
--7--------7--------7L------|--7--8--------8--------8L---|
----------------------------|----------------------------|


----------------------------|-------|----------|----------------------------|
----------------------------|-------|-----9----|--8--------8-----------8L---|
--8-----8--------8----------|--9L---|--9-------|--------------8-------------|
----------------------------|-------|----------|----------------------------|


----------------------------|----------------------------|
--8--------8----------------|--8--------8-----------8L---|
--------------8-------------|--------------8-------------|
----------------------------|----------------------------|


----------------------------|----------------------------|
--8--------8----------------|--7--------7--7--------7L---|
--------------8-------------|----------------------------|
----------------------------|----------------------------|


----------------------------|----------------------------|
--7--------7--7-------------|-----------------------0L---|
----------------------------|--6--------6--6-------------|
----------------------------|----------------------------|


----------------------------|--0--------0-----------0L---|
--0--------0--0-------------|--------------0-------------|
----------------------------|----------------------------|
----------------------------|----------------------------|


--0--------0----------------|----------------------------|
--------------0-------------|----------------------------|
----------------------------|--3--------3-----------3L---|
----------------------------|--------------3-------------|


----------------------------|----------------------------|
----------------------------|--3--------3-----------3L---|
--3--------3--3-------------|--------------3-------------|
----------------------------|----------------------------|


----------------------------|----------------------------|
--3--------3----------------|-----------------------3L---|
--------------3-------------|--3--------3----------------|
----------------------------|--------------3-------------|


----------------------------|--3--------3-----------3L---|
--3--------3--3-------------|--------------3-------------|
----------------------------|----------------------------|
----------------------------|----------------------------|


--3--------3----------------|--3--------3-----------3L---|
--------------3-------------|--------------3-------------|
----------------------------|----------------------------|
----------------------------|----------------------------|


--3--------3----------------|--2--------2--2--------2L---|
--------------3-------------|----------------------------|
----------------------------|----------------------------|
----------------------------|----------------------------|


--2--------2--2-------------|----------------------------|
----------------------------|--1--------1--1--------0L---|
----------------------------|----------------------------|
----------------------------|----------------------------|


----------------------------|--0--------0-----------0L---|
--0--------0--0-------------|--------------0-------------|
----------------------------|----------------------------|
----------------------------|----------------------------|


--0--------0----------------|-------|-------|----------------------------|
--------------0-------------|-------|-------|--3--------3-----------3L---|
----------------------------|--3L---|--3----|--------------3-------------|
----------------------------|-------|-------|----------------------------|


----------------------------|----------------------------|
--3--------3----------------|--4--------4-----------4L---|
--------------3-------------|--------------4-------------|
----------------------------|----------------------------|


----------------------------|----------------------------|
--4--------4----------------|--3--------3-----------3L---|
--------------4-------------|--------------3-------------|
----------------------------|----------------------------|


----------------------------|-------|-------|-------|----|----|----||
--3--------3----------------|--4L---|--4----|--3----|----|----|----||
--------------3-------------|-------|-------|-------|----|----|----||
----------------------------|-------|-------|-------|----|----|----||


espero que esta info le pueda servir a mas de alguien... Bendiciones
Suggest correction
Give kudos to tab author, rate the tab!
1 2 3 4 5
comments
print report bad tab
guest
You may want to rate the tab now too:
select rating
Wanna post a correction for this tab? Suggest correction