Oops, an error
Loading. Please wait.

Dios, Desciende Aquí Chords

version 2
version 2

Whole song

94 views 1 this week
no commentswrite comment
1 2 3 4 5
3 more votes to show rating
add to favorites
launch autoscroll
font size
0
reset
transpose
0
reset
display chords
guitar tuner
Autoscroll
slow
fast
+/-
esc
set tempo
stop
Help us to improve Ultimate-Guitar.com Take our survey!
×
Afinación G D A E B

  Intro
G |------------------------------------------------------------------
D |-----------4h6----------------------------------------------------
A |-2s4-------------4---4-4-4-4-4-4---4-4---------4---4-4-4-4-4-4----
E |-----------------------------------------4--4---------------------
B |------------------------------------------------------------------

G |-----------------------------------------------|
D |-----4h6-------------------------------4h6-----|
A |4-4---------4---4-4-4-4-4-4---4-4--------------|
E |---------4-------------------------------------|
B |-----------------------------------------------|

Verso 1
G |-----------------------------------------------------------------
D |-------------------------4h6----------------------------4h6------
A |-4---4-4-4-4-4-4---4-4----------4---4-4-4-4-4-4---4-4------------
E |-----------------------------4------------------------------4----
B |-----------------------------------------------------------------

G |---------------------------------------------------------------
D |---------------4-4------------------------------------6---6----
A |-------------4-----4h6-------4---4-4-4-4-4-4---4-4------4------
E |-2---2-2-2-2-----------4--4------------------------------------
B |---------------------------------------------------------------

G |---------------------------------6---------------------------------
D |--------------------------------6-6----------4h6-------------------
A |-1---1---1-1------------------4-----4---4-4---------4---4-4-4-4-4-4
E |--------------2---2-2---4--4---------------------------------------
B |-------------------------------------------------------------------

G |-------------------------------------------------------------------
D |-------------------------------------------------------------------
A |--4-4---------4---4-4-4-4-4-4---4-4--------------------------------
E |--------4--4-------------------------2h4----2---2-2-2-2-2-2---2?-2-
B |------------------------------------------2------------------------

G |------------------------------------------------------------------
D |-------------------------------6---6------------------------------
A |-------4---4-4-4-4-4-4---4-4-----4-----1---1--1-1-----------------
E |-4--4----------------------------------------------2---2-2---4--4
B |-----------------------------------------------------------------


G |-----------------------------|
D |-----------------------------|
A |-4---4-4-4-4-4-4---4-4-------|
E |-----------------------2h4---|
B |---------------------------2-|


  Precoro 1
G |----------------------------------------
D |---------------4-4----------------------
A |-------------4-----4h6------4---4-4-4---
E |2---2-2-2-2------------4-4--------------
B |----------------------------------------

G |-------------------------------------------------------------------
D |--------------4h6---------------------4-4--------------------------
A |-4-4-4---4-4------------------------4-----4h6------4---4-4-4-4-4-4-
E |------------------4----2---2-2-2-2-------------4-4-----------------
B |-------------------------------------------------------------------

G |-----------------------------------------------------------------
D |----------6---6--------------------------------------------------
A |--4-4---4---4-------------------------------4---4-4-4-4-4-4---4-4
E |-----------------2----2--4-4h6--6-6---4--4-----------------------
B |-----------------------------------------------------------------

G |-----------|
D |--4h6\-----|
A |-----------|
E |-----------|
B |-----------|
  (1:17) Puente 1
G |--------------------10h11------------------------------------------
D |-------4------11h13------------------------------------------------
A |-----4---------------------6---6-6-6-6------------------4---4---4-4
E |-2--------------------------------------6---4---4-4-4h6------------
B |-------------------------------------------------------------------

G |---------------------------|
D |---------------------------|
A |-4-4-4-4---4-4---4-4-4-----|
E |---------------------------|
B |---------------------------|

  Verso 2 aumenta de tono (medio tono)
G |------------------------------------------------------------------
D |-----------------------5h7--------------------------5h7-----------
A |-5---5-5-5-5-5-5---5-5--------5---5-5-5-5-5-5---5-5---------------
E |---------------------------5----------------------------5-?3---3-3
B |------------------------------------------------------------------

G |------------------------------------------------------------------
D |-------5-5---------------------------------7---7------------------
A |-----5-----5h7------5---5-5-5-5-5-5---5-5----5-----2---2---2-2----
E |-3-3-----------5-5----------------------------------------------3-
B |------------------------------------------------------------------

G |----------------------------------------7-------------------------
D |--------------------------------------7---7-----------------------
A |--------------5---5-5-5-5-5-5---5-5---------5---5---5-5-5-5-5-5---
E |--3-3---5--5------------------------------------------------------
B |------------------------------------------------------------------

G |------------------------------------------------------------------
D |----5h7----------------------------7-7----------------------------
A |5-5--------5---5-5-5-5-5-5---5-5----------------------------------
E |--------5--------------------------------3---3-3-3-3-3-3---3-3----
B |------------------------------------------------------------------


G |------------------------------------------------------------------
D |---------------------------------7---7----------------------------
A |-------5---5-5-5-5-5-5---5-5---5---5-----2---2---2-2--------------
E |-5-5---------------------------------------------------3---3-3----
B |------------------------------------------------------------------

G |------------------------7-7-------------|
D |-----7----------------7-----7-----------|
A |----7-7---5---5-5-5-5---------5--5-5-5--|
E |-5--------------------------------------|
B |----------------------------------------|

  Precoro 2
G |------------------------------------------------------------------
D |---------5-5------------------------7------------7---7------------
A |-------5------5h7-------5---5-5-5-5---5---5-5------5---5----------
E |--3---------------5-5---------------------------------------3---3-
B |------------------------------------------------------------------

G |------------------------------------------------------------------
D |---------5-5-------------------------------------7---7------------
A |-------5------5h7-------5---5-5-5-5-5-5---5-5------5---5----------
E |3-3-3-------------5-5---------------------------------------------
B |------------------------------------------------------------------

G |-----------------------------------------------------------------|
D |-----------------------------------------------------------------|
A |-----------------------------------------3s5-5-5-5-5-5-5-5-5-5-5-|
E |--3---3-5-5s7--7-7--5-5------------------------------------------|
B |--------------------------3----3-3-3-3-3-------------------------|

  Coro 1
G |------------------------------------------------------------------
D |------------------------------------------------------------5-----
A |-5---5-5-5----------------5-------------------------------5---5---
E |-----------5-7---------------------3---3-3--3-----3---3---------5-
B |---------------3---3-3------3-3---------------3-3-----------------

G |------------------------------------------------------------------
D |------------------------------------------------------------------
A |-----------------------------5----7--7-7-7-7-5-7-7s9---9-9-9-9-9-9
E |5s7---7-7--7---3-5---5-5-5-5---5----------------------------------
B |-------------7----------------------------------------------------

G |------------------------------------------------7-------7--------|
D |----7-5---------------------------------------7-------7----------|
A |--5----------------------------------5----5-------5-------5--5---|
E |---------3---3-5-5s7--7-7---5--5--7------------------------------|
B |--------------------------7--------------------------------------|

  (2:53) Puente 2
G |-------------------11h12------------------------------------------
D |---------5---12h14------------------------------------------------
A |-------5-------------------7--7--7--------------5------5----------
E |--3--------------------------------7-5--5-5?5s7-------------------
B |---------------------------------------------------------------3--


G |------------------------------------------------------------------
D |-----------------------------------------5------5-----------------
A |---------5---5-5-5-5h7-----------------5----------5---------------
E |------5----------------5-3---3-3-3-3-3--------------5--7---7--7---
B |3--3--------------------------------------------------------------

G |------------------------------------------------------------------
D |------------------------------------------------------------------
A |------------------------------------------------------------------
E |---7-5--5---5-3-2---------------------/\--3---3-5-5s7--7-7----5--5
B |-7----------------5--5--5-3-5-7--7--7----------------------7------

G |--------------------1
D |--------------------|
A |--------------------|
E |--7-----------------|
B |--------------0--2--|

  (3:24) Verso 3
G |------------------------------------------------------------------
D |---------------------------------------5--5--5--------------------
A |--------------5--5?-5h7--------------5---------5------------------
E |------------5-----------5---3--3--3--------------5--7--7--7--3--5-
B |---3--3--3--------------------------------------------------------

G |------------------------------------------------------------------
D |------------------------------------------------------------------
A |------------------------------------------------------------------
E |-5--5-3-2-0--0--0-----0?-2---2--2?2---\---3---3-5-5s7--7-7----5--5
B |-------------------3---------------------------------------7------

G |------7-------------------------------|
D |------------5---------7-9-5s7--5-4----|
A |--7h9---7h9-------5-7-----------------|
E |--------------------------------------|
B |--------------------------------------|

  Coro 2
G |------------------------------------------------------------------
D |------------------------------------------------------------------
A |---------------5---5-5-5-5-7------------------------------5-------
E |-------------5---------------7--3---3-3-3-3-3---3---3-3-3---3-5---
B |-3---3-3-3-3----------------------------------3-------------------

G |------------------------------------------------------------------
D |------------------------------------------------------------------
A |--------------------------------5-5--7--7-7-7-7--5-7-7s9---9-9-9-9
E |5s7---7-7-7-7---7---5---5-5---------------------------------------
B |--------------7---------------------------------------------------

G |------------------------------------------------------------------
D |------------------------------------------------------------------
A |-9-9-----------------------------------4---------------5---5-5-5-5
E |------/\-----3---3-5-5s7--7-7----5--5----------------5------------
B |------------------------------7----------3---3-3-3-3--------------

G |-------------------------------------------------------------------
D |-------------------------------------------------------------------
A |5h7---4h5-----------------------------------------5---5-5-5-5-5-5-5
E |----------3---3-5-5s7--7-7----5--5------------5h7------------------
B |---------------------------7---------3---3-3-----------------------
   Puente 3
G |---------------------------11h12---------------------------------|
D |-------------5--5----12h14-----------------9----7----------------|
A |-----------5----------------------7--7--7-------------------5\---|
E |--3--3--3------------------------------------7----5--5?5s7-------|
B |-----------------------------------------------------------------|

  (4:21)
G |-------------------------------------------------7-7-7-7-7-7-7-7-7
D |--------------------------------------------7h9-------------------
A |--------------5-5-5-5-5-5-5-5-----5---5-5-5-----------------------
E |------------5-----------------5h7---------------------------------
B |-3--3--3--3-------------------------------------------------------

G |---------------7-7-7-7-7-7-9---7--------------------7-7-7-7-7-7-7\|
D |----------7h9----------------9-----------------7h9----------------|
A |-5--5--5----------------------------5---5-5-5---------------------|
E |------------------------------------------------------------------|
B |------------------------------------------------------------------|
Suggest correction
Give kudos to tab author, rate the tab!
1 2 3 4 5
comments
print report bad tab
guest
You may want to rate the tab now too:
select rating
Wanna post a correction for this tab? Suggest correction