Oops, an error
Loading. Please wait.

Es Aquí, Es Ahora Tab

107 views 1 this week
no commentswrite comment
1 2 3 4 5
3 more votes to show rating
add to favorites
launch autoscroll
font size
0
reset
how to read this tab
guitar tuner
×
Best way to learn
"Es Aquí, Es Ahora"
Autoscroll
slow
fast
+/-
esc
set tempo
stop
Hola.. aki estoy de nuevo con esta super drupperr cancion ajjajaja XD
unas de las mejores del disco..apoko no..y mas por el super solo
.... bueno vamos a lo que vamos...

Aqui le dejo la cancioncita..con los solos incluidos..

mi correo es : bggs15@

recuerden...escuchen bien la cancion para poder sacar....vale..bueno
disfurtenla...

cualquier duda ahi esta mi correo..:D.. saludos a todos de coatzacoalcos
Ver..:D ... MONTE HERMON..:D

bggs15@

atte: jorge

INTRO:

Esto se hace dos veces, chekenlo.. se hace dos veces

E ---------------5-------------------------
A -5--5-5--5-5-----3-5--5--5-5--8--8--7----
D -7--7-7--7-7----------7--7-7--10-10-9----
G -----------------------------------------
B -----------------------------------------
e -----------------------------------------

VERso:

E ---------------5-------------------------
A -5--5-5--5-5-----3-5--5--5-5-------------
D -7--7-7--7-7----------7--7-7-------------
G -----------------------------------------
B -----------------------------------------
e -----------------------------------------
      D
ES AQUÍ, ES AHORA MUEVE EN MI DIOS HAZ TU OBRA
                          E ----------------------
                          A ---5--5-5--8--8--7----
                          D ---7--7-7--10-10-9----
                          G ----------------------
                          B ----------------------
                          e ----------------------
      G                        D
MUEVETE CON TU PODER SOBRENATURAL

E ---------------5-------------------------
A -5--5-5--5-5-----3-5--5--5-5-------------
D -7--7-7--7-7----------7--7-7-------------
G -----------------------------------------
B -----------------------------------------
e -----------------------------------------
     D
NESECITO ACERCARME, YO DESEO EMBRIAGARME

                                E ----------------------
                                A ---5--5-5--8--8--7----
                                D ---7--7-7--10-10-9----
                                G ----------------------
                                B ----------------------
                                e ----------------------

        G                       D
DE TU AMOR Y TU PODER SOBRENATURAL

Pre-coro

                E ------------------------------5----------
                A -5--5-3-5--5-3-5---5--5-3-5-3------------
                D -----------------3-----------------------
                G -----------------------------------------
                B -----------------------------------------
                e -----------------------------------------

  A   G           D
DIOS    SOBRENATURAL,

                E ------------------------------5----------
                A -5--5-3-5--5-3-5---5--5-3-5-3------------
                D -----------------3-----------------------
                G -----------------------------------------
                B -----------------------------------------
                e -----------------------------------------

A  G
DIOS    SOBRENATURAL


Coro:

      D                        E
MUEVETE EN LAS NACIONES, MUEVETE EN LOS CORAZONES
                E -----------------------------------------
                A -0-2-3-2-3-2-3-2-3-5-5---5-3--2----------
                D ----------------------4-4---2--0---------
                G -----------------------0-----0--0--------
                B -----------------------------------------
                e -----------------------------------------

      G           C            D
MUEVETE CON TU PODER SOBRENATURAL
      D                   E
MUEVETE EN MI VIDA, MUEVETE CADA DIA

                E -----------------------------------------
                A -0-2-3-2-3-2-3-2-3-5-5---5-3--2----------
                D ----------------------4-4---2--0---------
                G -----------------------0-----0--0--------
                B -----------------------------------------
                e -----------------------------------------

                E -------------------------
                A -5--5---5-3--2-----------
                D -7---4-4---2-------------
                G ------0-----0------------
                B -------------------------
                e -------------------------


      G           C            D
MUEVETE CON TU PODER SOBRENATURAL


((aki va un momento donde solo se queda en Re menor.. y el bajeo
es D - F - E . Escuchenlo eh intentenlo))


Aqui vuelve al verso, todo es igual
..

En esta parte empiezan los solos..escuchenlo muy bien--.

s = slide
sd = slide down
~ = vibrato
** = ..cuando pongo este simbolo..quiero decir que usa la palanca de
     vibrato hasta la nota que ponmgo depsues de los **..
     escuchenlo bien
     para que los puedan sacar
b = bending
h = hammer on
p = pull off

Primer Solo:

Las notas del primer solo son:

D - C - G/B

E --------------------------------------------
A -----------------------------7-----7-5-3**--
D -------------------------7-5---7-5----------
G -5~-5h7~-5h7~-5h7~-5h7p5--------------------
B --------------------------------------------
e --------------------------------------------

E ----------------------------------
A ----------------------------------
D -5-6-7--5-6-7---------------------
G ------5------5-7s9--------5**1----
B ------------------8-8-8-x-6**0----
e --------------------8-8-x---------

E ---------------------------------------------------------------
A ---------------------------------------------------------------
D ---------------------------------------------------------------
G ---------------------------------------------------------------
B --10p8-----10--10p8-----8-----15------20b22-20b22-20b22-20b22--
e -8-----10p8---8-----10p8---s15--13s17--------------------------


E --------------------------------------
A --------------------------------------
D --------------------------------------
G --------------------------------------
B -18b21r18-15-13-16b18-15-13-15b17~----
e --------------------------------------

Segundo solo:

Las notas del segundo son:

Este solo ..hay una parte qeu es rapida..yo lo saque asi..y le puse
un efecto como de flanger.,leve para que se escuche mas lleno...
..a mi me suena bien..pero es de cada quien..asi lo toco yo y rifa chido!

=)


E - D - A/C#

E -------------------------------------------------------------
A -------------------------------------------------------------
D -------------------------------------------------------------
G -----------------14------14------14------14---------14-------
B -15b17~~----15-12--12-15---12-15---12-15---12-15-12---15-12--
e ---------12--------------------------------------------------

En esta parte puede que sea un poko mas o un poko menos de veces..
ahi chekenlo ustedes..aki le pongo las veces ue lo hago yo..suena
bien..pero aveces por el tiempo le podemos aumentar o quitar numero
de veces...

escuchenlo bien!!

E ---------------------------------------------------------------
A ---------------------------------------------------------------
D ---------------------------------------------------------------
G --14---------14-------14------14------14------14------14-------
B ----12-15-12----15-12---15-12---15-12---15-12---15-12---15-12--
e ---------------------------------------------------------------

E --------------------------------------
A --------------------------------------
D ------------14------------------------
G -14-12-14~12--12-14~-14---------------
B -----------------------12-15----------
e --------------------------------------

E ------------------------------------------------
A ------------------------------------------------
D ------------------------------------------------
G -14b16-b16-b16-14b16-b16-b16-14b16-b16-b16------
B --------12--12--------12--12--------12--12------
e --------12--12--------12--12--------12--12------

E -----------------------------------------------------
A -----------------------------------------------------
D -----------------------------------------14----------
G -14b16-b16-b16-14b16-b16-b16--14p12-14-12---14s16----
B --------12--12--------12--12---------------------15--
e --------12--12--------12--12-------------------------

E --------------------------------------
A --------------------------------------
D ------------14-------12-14sd----------
G -14p12-14-12--12sd--------------------
B --------------------------------------
e --------------------------------------

TERCER solo:

LAs del tercer solo son:

D - C - G/B

E ------------------------------------------------
A ------------------------------------------------
D -----7-----7-----7-----7-----7-----7-----7------
G -7p5--5h7p5-5h7p5-5h7p5-5h7p5-5h7p5-5h7p5--7-7--
B ------------------------------------------------
e ------------------------------------------------

E --------------------------------------
A --------------------------------------
D ----10--------------------------------
G -s10---s14--14---------14-------------
B ----------13---13b15-13--13-13--------
e --------------------------------------

E --------------------------------------
A --------------------------------------
D --------------------------------------
G -17b19-15b17-14b16-15b17-17b19--------
B ----15----13----12----13----15--------
e --------------------------------------

E --------------------------------------
A --------------------------------------
D --------------------------------------
G -17b19-19b21--------------------------
B ----15----17-16b18-18b21-20b22~~------
e ----------------13----15----17~~------

Aki termina la cancion ..

Sobrenatural.. sobrenatural..todo eso va con:

Dm - F - E

Escuchenlo muy bien para que lo puedan sacar

Bueno sin mas por el momento,..esperando que sea de bendicion.
..Ya sabem ahora los guitarristas mas chidos somos Cristo y para EL

hay que echarle ganas! cualqueir comentario ahi esta mi correoo..con
gusto los atendere...

=)
Suggest correction
Give kudos to tab author, rate the tab!
1 2 3 4 5
comments
print report bad tab
guest
You may want to rate the tab now too:
select rating
Wanna post a correction for this tab? Suggest correction