Oops, an error
Loading. Please wait.

Es Por Tí Tab

13 views 1 this week
no commentswrite comment
1 2 3 4 5
3 more votes to show rating
add to favorites
launch autoscroll
font size
0
reset
how to read this tab
guitar tuner
×
Best way to learn
"Es Por Tí"
Autoscroll
slow
fast
+/-
esc
set tempo
stop
Solo.

 E--------------------------------------------------|
 B--------------16v-----------------------16v-------|
 G----------17------------18--17--15----------------|
 D--15--18-----------18--------------18-------18--|
 A--------------------------------------------------|
 E--------------------------------------------------|


 E-------------------------------------------------------|
 B------------------16v----------------------------------|
 G--18--17--15----------------18--17--15--15s13----------|
 D--------------18-------18---------------------13s15v--|
 A-------------------------------------------------------|
 E-------------------------------------------------------|
Suggest correction
Give kudos to tab author, rate the tab!
1 2 3 4 5
comments
print report bad tab
guest
You may want to rate the tab now too:
select rating
Wanna post a correction for this tab? Suggest correction