Oops, an error
Loading. Please wait.

Levántate Señor Bass

108 views 1 this week
no commentswrite comment
1 2 3 4 5
3 more votes to show rating
add to favorites
launch autoscroll
font size
0
reset
guitar tuner
×
Best way to learn
"Levántate Señor"
Autoscroll
slow
fast
+/-
esc
set tempo
stop
Afinación: G D A E

  (0:40)   (1:10)  (2:19)
G |-------|-------|---------------------------------------------------
D |-------|-------|--------11------15s17-15-13------------------------
A |-3-----|--3----|3/15-15----15---------------13-13s15?--13h15-13h15-
E |-------|-------|---------------------------------------------------

                   (3:10)    (3:38)   (4:03)
G |---------------|---------|--------|-12-12-11-11-9-9--------10-10--
D |---------------|---------|--------|-----------------12-12---------
A |---13h15\---3--|----3----|----3---|-------------------------------
E |---------------|---------|--------|-------------------------------

G |8-8-7-7--------------------------------|
D |--------10-10-----------------------3--|
A |---------------10-10-8-8-7-7-----------|
E |-----------------------------10-10-----|

Aquí empieza la canción ?Levántate?

  (4:44) Intro
G |-------------------------------------------------------------------
D |-------------------------------------------------------------------
A |3---3-3-3---3--3-3---1--1----3---3-3-3---3--3-3---1--1----3---3-3-3
E |-------------------------------------------------------------------

G |-------------------------------------------------------------------
D |---------------------------------------------13--------------------
A |---3--3-3---1--1----3---3-3-3---3/15--15--15-----15\--3---3-3-3---3
E |-------------------------------------------------------------------

G |-------------------------------------------------------------------
D |-------------------------------------------------------------------
A |--3-3---1--1----3---3-3-3---3--3-3---1--1----3---3-3-3---3--3-3---1
E |-------------------------------------------------------------------

G |------------------------------------|
D |------------------------------------|
A |--1----3---3-3-3---3--3-3-3---1--1--|
E |------------------------------------|

  (5:11) Puente (Reprendiendo Espíritus)
G |-------------------------------------------------------------------
D |-------------------------------------------------------------------
A |-3-3-3-3--1-3-----1--3-3-3--6-5-3-----1--3-3-3-3--1-3-----1--3-3-3-
E |----------------4-------------------4-------------------4----------

G |-------------------------------------------------------------------
D |-------------------------------------------------------------------
A |3---6-6-6-5----3-3-3-3?-1-3-----1--3-3-3--6-5-3-----1--3-3-3-3--1-3
E |------------------------------4-------------------4----------------


G |-------------------------------------------------|
D |-------------------------------------------------|
A |-----1--3-3-3-3---6-6-6-5------------------------|
E |---4--------------------------3-3-3---------/\---|

  (5:38) Coro
G |-------------------------------------------------------------------
D |------1-3----------1---3-------------------------------------------
A |----3----------1h3---3----3----1--1-1--1-----1-3--3---3-3--1------3
E |-1-----------1-----------------------------3-------------------1---

G |-------------------------------------------------------------------
D |-1-3----------1---3------------------------------------------------
A |----------1h3---3----3-------------------------------3---3-3-3-3-3-
E |--------1----------------3?3-3-3---3-3-----3-3-3\------------------

G |-------------------------------------------------------------------
D |--------------------------1-3----------1---3-----------------------
A |3-3-3-3-3-3-3-3-3\------3----------1h3---3----3----1--1-1--1-----1-
E |---------------------1-----------1-----------------------------3---

G |------------------------------------------------------------------|
D |---------------------1-3----------1---3---------------------------|
A |3--3---3-3--1------3----------1h3---3----3------------------------|
E |----------------1-----------1---------------3-3-3-3---3-3---3-3-3\|

  (6:07)  Final
G |------------------------------------------------------------------|
D |------------------------------------------------------------------|
A |3--3-3-3-3-3-3-3-3-3-3----4--4-4-4-4-4-4-4-4-4---4--4-4---2--4-4\-|
E |------------------------------------------------------------------|
Suggest correction
Give kudos to tab author, rate the tab!
1 2 3 4 5
comments
print report bad tab
guest
You may want to rate the tab now too:
select rating
Wanna post a correction for this tab? Suggest correction