Oops, an error
Loading. Please wait.

Mesías Mi Salvador Tab

14 views 1 this week
no commentswrite comment
1 2 3 4 5
3 more votes to show rating
add to favorites
launch autoscroll
font size
0
reset
how to read this tab
guitar tuner
×
Best way to learn
"Mesías Mi Salvador"
Autoscroll
slow
fast
+/-
esc
set tempo
stop
 02:00
e|---------------10------------------------------------------------------|
B|--8---8-8h10------10s12--12-12-12-10-10-8------------------------------|
G|----7--------7-----------------------------7-7h9-----------------------|
D|-----------------------------------------------------------------------|
A|-----------------------------------------------------------------------|
E|-----------------------------------------------------------------------|


e|--------------------------------10-10h12----12s15-14-10----10h12-12----|
B|----------7-8-10s12-10----10s12----------12-------------12-------------|
G|------7-9---------------7----------------------------------------------|
D|--7-9------------------------------------------------------------------|
A|-----------------------------------------------------------------------|
E|-----------------------------------------------------------------------|


e|-----------------------------------------------------------------------|
B|--10-10-10h12-12--8-8-8h10-10--7-7-7h8-8-------------------------------|
G|-----------------------------------------------------------------------|
D|------------------------------------------9-9-9h11-9--7----------------|
A|-----------------------------------------------------------------------|
E|-----------------------------------------------------------------------|

-   
Suggest correction
Give kudos to tab author, rate the tab!
1 2 3 4 5
comments
print report bad tab
guest
You may want to rate the tab now too:
select rating
Wanna post a correction for this tab? Suggest correction