Oops, an error
Loading. Please wait.

No Cambiaría Bass

34 views 1 this week
no commentswrite comment
1 2 3 4 5
3 more votes to show rating
add to favorites
launch autoscroll
font size
0
reset
guitar tuner
×
Best way to learn
"No Cambiaría"
Autoscroll
slow
fast
+/-
esc
set tempo
stop
Afinación: G D A E

Intro:(0:14)
G |------------------------------------------------------------------
D |------------------------------------------------------------------
A |-----------------------------------------------------5------------
E |-------1-----------3-----------2-----------1-------------------0--


           (0:50)
G |--------|----------------------------------------------------------
D |--------|----------------------------------------------------------
A |--------|----3-3-3-3-3-3-3-3-3-3-3-3-3-3-3-3-----------------------
E |-1----3-|-/\---------------------------------4-4-4-4-4-4-4-4-1-1-1-


            X3
G |-----------|-------------------------------------------------------
D |-----------|-------------------------------------------------------
A |---1-1-1-1-|-----------------1-1-1-1---------3-3-3-3-3-3-3-3-3-3-3-
E |-1---------|-1-1-1-1-1-1-1-1---------3-3-3-3-----------------------


            X1 Intervención
G |-----------|------------|------------------------------------------
D |-----------|------------|------------------------------------------
A |-3-3-3-3-3-|------------|---3-3-3-3-3-3-3-3-3-3-3-3-3-3-3-3--------
E |-----------|------------|-/\--------------------------------4-4-4-4


                         X1   (3:49) Versos
G |---------------------------|--------------------------------------
D |---------------------------|--------------------------------------
A |-----------------1-1-1-1---|--1h3-1h3-1h3?3?3--1h3-1h3-1h3?3?3----
E |-4-4-4-4-1-1-1-1---------3-|--------------------------------------


                                       Precoros
G |-----------------------------------|------------------------------
D |-----------------------------------|------------------------------
A |-1h3-1h3-1h3?3?3---1h3-1h3-1h3?3?--|--------------3-3?-3?-3?-3----
E |---------------------------------3-|-1-1--1--1--1-----------------


                             Coro                                   X3
G |-------------------------|-----------------------------------------
D |-------------------------|------------1----------------------------
A |-------------------------|-3-3--1---1---3--------1-1-1-3-3-3-------
E |-1-1--1--1--1----3-----3-|--------3--------4?4-4-------------3-3-3-


Todo se repite igual.
A Continuación los adornos de la canción en tiempo exacto:

  (4:40) Puente                    (2:53)
G |--------------------------------|------------15-------15------15---
D |----------------------------3s5-|----15-17-17---17-17----17-17?17\-
A |--------------------------------|15s17-----------------------------
E |-4-4-6--4-4-3--4-4-6--4-4-3-----|----------------------------------


  (5:01)
G |------------------------------------------------------------------
D |------------------------------------------------------10-12-------
A |---1-3-1--1-3-1--1-3-1--1-3-1--1-3-----------3---8h10-------------
E |-3------3------3------3------3-----12\--1--------------------1?---


G |------------------------|
D |------------------------|
A |------------------------|
E |-3---3-3-3-3-3-3-3-3-3\-|


  (6:08) Final
G |-----------------------------------------------------------------
D |-------------13----------------15-----------------13-------------
A |-3--1h3-3s15----15--3?1h3-3s15----15---3?1h3-3s15----15-3-1h3-3--
E |-----------------------------------------------------------------


G |--------------------------|
D |--------------------------|
A |------1-3-6-3-------------|
E |--3-3---------------------|
Suggest correction
Give kudos to tab author, rate the tab!
1 2 3 4 5
comments
print report bad tab
guest
You may want to rate the tab now too:
select rating
Wanna post a correction for this tab? Suggest correction