Oops, an error
Loading. Please wait.

Nuestro Padre Eres Tú Bass Tab

7 views 1 this week
no commentswrite comment
1 2 3 4 5
3 more votes to show rating
add to favorites
launch autoscroll
font size
0
reset
guitar tuner
×
Best way to learn
"Nuestro Padre Eres Tú"
Autoscroll
slow
fast
+/-
esc
set tempo
stop
Afinación: G D A E B

  Intro
G |------------------------------------------------------|
D |--/11--12----11-12-------------9s11-12----11-12-------|
A |-----------12-------10--------------------------10----|
E |------------------------------------------------------|
B |------------------------------------------------------|

   Versos
G |-----------------------------------------------------------------
D |-----------------------------------------------------------------
A |--4--5----4--5-------------------4--5----4--5------------------4-
E |-------------------3----3-3-----------------------3----3-3-------
B |-----------------------------------------------------------------

G |-------------------------------------------------|
D |-------------------------------------------------|
A |-5----4--5------------------4--5----4--5---------|
E |---------------3----3-3----------------------3---|
B |-------------------------------------------------|

   Coro 1
G |-----------------------------------------------------------------
D |----------------------------------------------7------------------
A |-------------------5------------5--------------------------------
E |--3----3-2-----3----3-2-----3----3-2-----5-----5-5---5---2-2---3-
B |-----------------------------------------------------------------

G |-----------------------------------|
D |-----------------------------------|
A |--5------------5-------------------|
E |---3-2-----3----3-2-----0-----5----|
B |-----------------------------------|

  Puente 1
G |-------------------------------------------------------------|
D |--/11--12----11--12----------------11--12----11--12----------|
A |----------------------10------------------------------9-10---|
E |-------------------------------------------------------------|
B |-------------------------------------------------------------|

  Verso 2
G |-----------------------------------------------------------------
D |-----------------------------------------------------------------
A |--4--5----4--5---------5---------4--5----4--5------------------4-
E |----------------2--3----3-3--------------------2--3----3-3-------
B |-----------------------------------------------------------------

G |----------------------------------------------------------------|
D |----------------------------------------------------------5-5---|
A |-5----4--5------------------4--5----4--5----------------------5-|
E |------------2--3----3-3-------------------2--3------------------|
B |----------------------------------------------------------------|


   Coro 2
G |-----------------------------------------------------------------
D |----------------------------------------------7------------------
A |-------------------5------------5--------------------------------
E |--3----3-2-----3----3-2-----3----3-2-----5-----5-5---5---2-2---3-
B |-----------------------------------------------------------------

G |-----------------------------------|
D |-----------------------------------|
A |--5------------5-------------------|
E |---3-2-----3----3-2-----0-----5----|
B |-----------------------------------|

  Puente 2 (2:44)
G |-----------------------------------------------------------------
D |-----------------------------------------------------------------
A |--2---2-2---4--4-4-4-4------------5-------------5-----------5----
E |-------------------------0-2-3-----3-2---2-3-----3-2----3----3-5-
B |-----------------------------------------------------------------

G |-------------|
D |----7--------|
A |-------------|
E |-5-----5-----|
B |-------------|

  Coro 3
G |-----------------------------------------------------------------
D |------8----------------------------8-7-----------5---------------
A |----------------------------------8---------3-----3---3--0-0---6-
E |--6----6-5-----6----6-5-----6------------------------------------
B |-------------------6---------------------------------------------

G |---------------------------------------------|
D |------------------------------------5--------|
A |---6-5-----6----6-5-----5---------------3----|
E |-------------------------------3-----3-------|
B |---------------------------------------------|

   Puente 3 (3:32)
G |------------------------------------------------------------|
D |------------------------------------------------------------|
A |--5----5-3-----------5-3------3-5------5-3--3-3---------3---|
E |------5--------3----5--------5--------5-------------3-------|
B |------------------------------------------------------------|

  Final (3:53)
G |-----------------------------------------------------------------|
D |-----------------------------------------------------------------|
A |---7--8---8---7--8-----------8------7--8---7--8-----------3---5--|
E |------------8-------8s6-6-----6--------------------5-6-----------|
B |-----------------------------------------------------------------|
Suggest correction
Give kudos to tab author, rate the tab!
1 2 3 4 5
comments
print report bad tab
guest
You may want to rate the tab now too:
select rating
Wanna post a correction for this tab? Suggest correction