Oops, an error
Loading. Please wait.

Peña De Horeb Tab

74 views 1 this week
no commentswrite comment
1 2 3 4 5
3 more votes to show rating
add to favorites
launch autoscroll
font size
0
reset
how to read this tab
guitar tuner
×
Best way to learn
"Peña De Horeb"
Autoscroll
slow
fast
+/-
esc
set tempo
stop
aca esta cancion muy buena
esta 100% correct jejeje

PEÑA DE HOREB (Em)
Por MÍ

Intro: Em D C G Am C B7

         Em       D       C  G
e ---------------------------------------------------------|
B ---8-8h9----8h9-8---------8------------------------------|
G -9-------9--------9-7-7h9--------------------------------|
D ----------9----------------------------------------------|
A ---------------------------------------------------------|
E ---------------------------------------------------------|

         Am    C         B7
e -----------------10-8-7----------------------------------|
B -7-8-9-10------7--------10-8-7---------------------------|
G ---------------------------------------------------------|
D ----------9h10-------------------------------------------|
A ---------------------------------------------------------|
E ---------------------------------------------------------|

        Em        D       C   G
e ---------------------------------------------------------|
B ---8-8h9----8h9-8---------8------------------------------|
G -9-------9--------9-7-7h9---7----------------------------|
D ----------9----------------------------------------------|
A ---------------------------------------------------------|
E ---------------------------------------------------------|

         Am     C                      B7
e ---------------------8-8-7-7--------------------------7--|
B -7-8-9-10--------------------10-10-8-7-----------7---8---|
G -----------------------------------------9h11p9-8---9----|
D -----------9h10p9----------------------------------------|
A ---------------------------------------------------------|
E ---------------------------------------------------------|


              Em        C               B
Cristo es la peña de Horeb que esta brotando

e -----------------7-----------8-------------------5-7-8-7-5------|
B ---------------8-----------8-------------------------------8-7--|
G -------------9-----------9--------------------------------------|
D ----------------------------------------------------------------|
A ----------------------------------------------------------------|
E ----------------------------------------------------------------|
         B                  Em
Agua de vida saludable para mí

e ----------------------------------------------------|
B ------------------------------7-8-7-8---------------|
G ----------------------------------------------------|
D ----------------------------------------------------|
A ----------------------------------------------------|
E ----------------------------------------------------|


              E                        Am
Cristo es la peña de horeb que esta brotando

e -------------------------------------------7-10-8-------|
B -----------------------------------------8--------------|
G ----------------1--2--5---------------------------------|
D ----------------2--4--7---------------------------------|
A --------------------------------------------------------|
E --------------------------------------------------------|
        Em        B         Em
Agua de vida saludable para mí

e ----------------------------------------------------|
B -12h13-12-10h12p10-8-12-10-8h10p8-7-8h10-8-7h8p7-5--|
G -12-------------------------------------------------|
D ----------------------------------------------------|
A ----------------------------------------------------|
E ----------------------------------------------------|

          D                              G
Ven a probarla que es más dulce que la miel

e ---------7-7-7-7-7-7-7------------------------------|
B -7-------7-7-7-7-7-7-7------------------------------|
G --9-7----7-7-7-7-7-7-7------------------------------|
D ----------------------------------------------------|
A ----------------------------------------------------|
E ----------------------------------------------------|
         B                 Em
Refresca mi alma refresca todo mi ser

e -------------5-7-8-7-5----------------------<12>----|
B -----------------------8-7--5-4-5/7---------<12>----|
G --------------------------------------------<12>----|
D ----------------------------------------------------|
A ----------------------------------------------------|
E ----------------------------------------------------|
              E                       Am
Cristo es la peña de horeb que esta brotando

e -------------------------------------------7-10-8-------|
B -----------------------------------------8--------------|
G ----------------1--2--5---------------------------------|
D ----------------2--4--7---------------------------------|
A --------------------------------------------------------|
E --------------------------------------------------------|
         Em       B         Em
Agua de vida saludable para mí

e ----------------------------------------------------|
B -12h13-12-10h12p10-8-12-10-8h10p8-7-8h10-8-7h8p7-5--|
G -12-------------------------------------------------|
D ----------------------------------------------------|
A ----------------------------------------------------|
E ----------------------------------------------------|

Solo:
                  E                   Am
e --------------------7-7-10/12-10--8-7--8/10--8------
B ----------7-8-----8-----------12------10/12-10------
G ----9-8-9-----9-9---9-9-----------------------------
D --9-------------9-9---------------------------------
A ----------------------------------------------------
E ----------------------------------------------------

                 Em           B           Em
e ----------------------------------------------------|
B -12h13-12-10h12p10-8-12-10-8h10p8-7-8h10-8-7h8p7-5--|
G -12-------------------------------------------------|
D ----------------------------------------------------|
A ----------------------------------------------------|
E ----------------------------------------------------|

           D                              G
Ven a tomarla que es más dulce que la miel

e ---------7-7-7-7-7-7-7------------------------------|
B -7-------7-7-7-7-7-7-7------------------------------|
G --9-7----7-7-7-7-7-7-7------------------------------|
D ----------------------------------------------------|
A ----------------------------------------------------|
E ----------------------------------------------------|
             B             Em
Refresca el alma refresca todo mi ser

e -------------5-7-8-7-5--------------5-7h8-7-5-5h7---|
B -----------------------8-7--5-4-8-7-----------------|
G ----------------------------------------------------|
D ----------------------------------------------------|
A ----------------------------------------------------|
E ----------------------------------------------------|
             E                       Am
Cristo es la peña de horeb que esta brotando

e -------------------------------------------7-10-8-------|
B -----------------------------------------8--------------|
G ----------------1--2--5---------------------------------|
D ----------------2--4--7---------------------------------|
A --------------------------------------------------------|
E --------------------------------------------------------|
         Em       B         Em
Agua de vida saludable para mí

e ---------------------------------------------------|----------|
B -12h13-12-10h12p10-8-12-10-8h10p8-7-8h10-8-7h8p7-5-|--8-8-7-8-|
G -12------------------------------------------------|--9-9-8-9-|
D ---------------------------------------------------|----------|
A ---------------------------------------------------|----------|
E ---------------------------------------------------|----------|
               E                       Am
Cristo es la peña de horeb que esta brotando

e -------------------------------------------7-10-8-------|
B -----------------------------------------8--------------|
G ----------------1--2--5---------------------------------|
D ----------------2--4--7---------------------------------|
A --------------------------------------------------------|
E --------------------------------------------------------|
          Em      B         Em
Agua de vida saludable para mí

e ----------------------------------------------------|
B -12h13-12-10h12p10-8-12-10-8h10p8-7-8h10-8-7h8p7-5--|
G -12-------------------------------------------------|
D ----------------------------------------------------|
A ----------------------------------------------------|
E ----------------------------------------------------|


Final:

                 Am         B  Em
e --------7-10-7h8-7--------------------------<12>--------|
B --7-8--------------10-8-7-8-10-7-8----------<12>--------|
G -9----9-------------------------------------<12>--------|
D --------------------------------------------------------|
A --------------------------------------------------------|
E --------------------------------------------------------|


cualkier duda mi correo es jsua_14@
Suggest correction
Give kudos to tab author, rate the tab!
1 2 3 4 5
comments
print report bad tab
guest
You may want to rate the tab now too:
select rating
Wanna post a correction for this tab? Suggest correction