Oops, an error
Loading. Please wait.

Quiero Cantar Una Linda Canción Tab

190 views 1 this week
no commentswrite comment
1 2 3 4 5
3 more votes to show rating
add to favorites
launch autoscroll
font size
0
reset
how to read this tab
guitar tuner
×
Best way to learn
"Quiero Cantar Una Linda Canción"
Autoscroll
slow
fast
+/-
esc
set tempo
stop
INTRO:

E||----------------------------|------------------------------|
A||----------------------------|------------------------------|
D||----------------------------|------------------------------|
G||-4-4----------------------6-|-4-4--------------------------|
B||---------5-----7-5--4h5p4---|-------------7-5-5--7-5-4-----|
E||-----7-7---5-4--------------|-----5-5--5-5-----------------|

E||----------------------------|------------------------------|
A||----------------------------|------------------------------|
D||----------------------------|------------------------------|
G||-4------------------------6-|----------------------------5-|
B||--------5-----7-5--4h5p4----|-7------------5-5s7-----7-5---|
E||---7-7----5-4---------------|---4-5--7--9---------5-4------|


  E                C#m                A          F#m      B
Quiero cantar una linda cancion, de Aquel que mi vida cambio
   E                C#m              A       F#m        B
quiero cantar una linda cancion de Aquel que me transformo.


CORO:

       E      C#m          A  F#m      B
Es mi amigo Jesús, Es mi amigo   mas fiel
       G#m        C#m      A  F#m      B
El es Dios, El es Rey, Es Amor   y Verdad
        E        C#m       A F#m        B
Solo en El, encontre, esa paz   que busque
        E       C#m    A     B   E
Solo en El, encontre, la felicidad.


Por: Christian  Yumbato
Suggest correction
Give kudos to tab author, rate the tab!
1 2 3 4 5
comments
print report bad tab
guest
You may want to rate the tab now too:
select rating
Wanna post a correction for this tab? Suggest correction