Oops, an error
Loading. Please wait.

Será Llena La Tierra Tab

163 views 3 this week
no commentswrite comment
1 2 3 4 5
3 more votes to show rating
add to favorites
launch autoscroll
font size
0
reset
how to read this tab
guitar tuner
×
Best way to learn
"Será Llena La Tierra"
Autoscroll
slow
fast
+/-
esc
set tempo
stop
Intro:
(Piano) x1
(Todo) x2
E|-----------------------------
B|-----------------------------
G|----5------5---------5-------
D|--7---5-7----5-5-7------5-7--
A|-----------------------------
E|-----------------------------

Aquí son dos rasgueos por acordes porq es un Reggae

Am                 G  F                Em
Alza Tus Ojos Y Mira, La Cosecha Esta Lista
Am              G     F               Em  B|-1-3-5-1
El Tiempo A Llegado, La Mies está Madura
Am                     G F                 Em
Esfuérzate y Se Valiente, Levántate Y predica
Am               G    F                 E
A Todas Las Naciones, Que CRISTO es la Vida

Coro

     F  F-G             E            Am
Y Sera Ah Ahh, Llena la Tierra De Su Gloria
          F  F-G             E             Am
Nos Cubrirá Ah Ahh, Como Las Aguas Cubren El Mar

(Intro X2)

(Trompetas)
En guitarra seria Así:
Y los demás instrumentos tocan el Intro

E|-----------------------------------|
B|---1-3-4H5P4-5P4-5P4-5P4-5P4-1-----|
G|-2------------------------------2--|
D|-----------------------------------|

E|-----------------------------3-2---|
B|---1-3-4H5P4-5P4-5P4-5P4-5P4-------|
G|-2---------------------------------|
D|-----------------------------------| Esto se repite otra vez

E|--------------------------------------|
B|--5-5-5-5-3-5h6p5-5-3-5h6p5-5-3-1-3-0-|
G|--------------------------------------|
D|--------------------------------------|

E|-5--5-4-3-2-1-5---------------------5-5S7-|
B|--------------------0---1---3---5---------|
G|------------------2---2---2---2---2-------|
D|------------------------------------------|

Coro

     F  F-G             E            Am
Y Sera Ah Ahh, Llena la Tierra De Su Gloria
          F  F-G             E             Am
Nos Cubrirá Ah Ahh, Como Las Aguas Cubren El Mar


Final
E|-----------------------------------|
B|---1-3-4H5P4-5P4-5P4-5P4-5P4-1-----|
G|-2------------------------------2--|
D|-----------------------------------|

E|-----------------------------3-2---|
B|---1-3-4H5P4-5P4-5P4-5P4-5P4-------|
G|-2---------------------------------|
D|-----------------------------------|

E|-----------------------------------|
B|---1-3-4H5P4-5P4-5P4-5P4-5P4-1-----|
G|-2------------------------------2--|
D|-----------------------------------|

E|-----------------------------3-2--5-8-3-5-|
B|---1-3-4H5P4-5P4-5P4-5P4-5P4--------------|
G|-2----------------------------------------|
D|------------------------------------------|

Acordes:

Estrofa

Am       G         F        Em
E|-5-    E|-3-     E|-5-    E|-7-
B|-5-    B|-3-     B|-6-    B|-8-
G|-5-    G|-4-     G|-5-    G|-9-
D|-x-   D|-X-   D|-X-   D|-X-
A|-x-   A|-X-   A|-X-   A|-X-
E|-x-   E|-X-   E|-X-   E|-X-

Coro

F         G        E        Am
E|-1-    E|-3-     E|-4-    E|-5-
B|-1-    B|-3-     B|-5-    B|-5-
G|-2-    G|-4-     G|-4-    G|-5-
D|-X-   D|-X-   D|-X-   D|-X-
A|-X-   A|-X-   A|-X-   A|-X-
E|-X-   E|-X-   E|-X-   E|-X-
Suggest correction
Give kudos to tab author, rate the tab!
1 2 3 4 5
comments
print report bad tab
guest
You may want to rate the tab now too:
select rating
Wanna post a correction for this tab? Suggest correction