Oops, an error
Loading. Please wait.

Solo En Tí Bass

49 views 1 this week
no commentswrite comment
1 2 3 4 5
3 more votes to show rating
add to favorites
launch autoscroll
font size
0
reset
guitar tuner
×
Best way to learn
"Solo En Tí"
Autoscroll
slow
fast
+/-
esc
set tempo
stop
ME GOZARE EN TI SEÑOR CON TODA EL ALMA

G:--------------------------------------
D:--------------------------------------
A:3--3-3---------------------------------
E:-------3--3--3--3s-5--5--5-5--5s--3-3--

 ME ALEGRARE EN SU AMOR Y SU ESPERANZA

G:---------------------------------------
D:---------------------------------------
A:3--3-3-3-------------------------------
E:---------3--3--3s--5--5--5--5--5-5s-3-3

 Y CANTARE AL QUE ES MI LUZ Y SALVACION

G:--------------------------------
D:0--0-0--------------------------
A:-------0--0--0-0--0-------------
E:---------------------3s---1-----


CORO

  SOLO EN TI VENCERE

G:----------------
D:----------------
A:------3---------
E:1-1-1-----3-3---

  LA MONTAÑA SUBIRE

G:--------------------------------------
D:---------------------------------------
A:----5-5-5s---8------------------------------
E:3-3--------------------------------------

  SOLO EN TI DANZARE

G:-------------------
D:-------------------
A:8-8--8-------10----
E:-------8-8-8-------

  CON TU GOZO VIVIRE

G:-----------------------
D:-------12-12-12-12-----
A:10-10s-------------8---
E:-----------------------

  JESUS,   JESUS,   JESUS,   JESUS

G:------------------- (2x)
D:-------------------
A:8------------------
E:--8s---3---3-5s--1-

  ERES LA VIDA DE MI CORAZON

G:------------------------
D:------------------------
A:3-3--3------------------
E:-------3-3-5-5-5s--1----

  TU ERES EL CENTRO DE MI ADORACION

G:-----------------------------
D:-----------------------------
A:-3-3--3----------------------
E:--------3-3-5-5--5-5s--1-----

nota: el coro es muy rapido si eres principiante no te desesperes
si no te sale a la primera ponte en oracion y veras que te sale.
Suggest correction
Give kudos to tab author, rate the tab!
1 2 3 4 5
comments
print report bad tab
guest
You may want to rate the tab now too:
select rating
Wanna post a correction for this tab? Suggest correction