Oops, an error
Loading. Please wait.

Tú Harás Tab

version 1
version 1

Whole song

Interactive

180 views 1 this week
no commentswrite comment
1 2 3 4 5
3 more votes to show rating
add to favorites
launch autoscroll
font size
0
reset
how to read this tab
guitar tuner
Autoscroll
slow
fast
+/-
esc
set tempo
stop
Help us to improve Ultimate-Guitar.com Take our survey!
×
Tab:  Luis A. Rodríguez.
Track 11 - Tú harás.
Duración 6:04.  En C.

[1]  0:00 - 0:19  Intro:  Música.  (Punteo o acordes.)
                                   (x4 - cuatro veces).

       He dejado cuatro alternativas según crean la más correcta.

       A continuación el desglose de esta sección.

       0:00  El público hace estruendo, a la vez entra el teclado.
       0:01  Entra la batería tocando los platos casi imperceptiblemente,
             después entra la guitarra haciendo el punteo de la alternativa
             2, casi al final de este segundo.  Esta guitarra básicamente
             hace esta secuencia x4 hasta el segundo 0:18.
       0:05  Al final de este segundo se oye claramente los platos.
       0:06  Entra la segunda guitarra que hace los slides.
       0:09  Entra el bombo de la batería al final de este segundo.
       0:10  Justo al principio de este segundo, justo después de que entra
             el bombo de la batería, entra el bajo.  El bajo básicamente
             hace una melodía similar a la alternativa 2.
       Todo continúa hasta el segundo 0:19, donde entra Marcos Witt.

Alternativa 1.  Tocar la progresión x4, en cambios rápidos y precisos de
                  acordes.
Alternativa 2.  Tocar el punteo de abajo x4.
Alternativa 3.  Tocar la progresión de power chords en negrillas x4.


            C(b) A#  C(b)  F        D#  C (4ta vez--CsD#-D#sC--)
       E |---------------------------------------  --0----0----
       B |---------------------------------------  --1/4--4/1--
       G |---------------------------------------  --0----0----
       D |-----------------3-3--3-3-3p1----------  --2/5--5/2--
       A |--3-3--1-1-3-3b---------------3b-------  --3/6--6/3--
       E |---------------------------------------  ------------
           Alternativa 1 y Alternativa 2.


            C5   A#5 C5    F5       D#5 C5
       E |-----------------------------------
       B |-----------------6-6--6-6-6-4------
       G |--5-5--3-3-5-5---5-5--5-5-5-3-5(2da,4ta-b)-(3s5-4ta)--
       D |--5-5--3-3-5-5---3-3--3-3-3-1-5(2da,4ta-B)-(3s5-4ta)--
       A |--3-3--1-1-3-3----------------3(2da,4ta-b)-(1s5-4ta)--
       E |-----------------------------------
           Alternativa 3 - Power Chords.


           Los acordes están sobre el tab para saber donde hay cambio de
           acordes.
          [b] - acorde de barra.  Es para diferenciarlos.

           p  - pull-off, o sea, soltar.
           s  - slide.


     E [1ra] |--8s11-4s8b---  Esta línea es para hacer la transición a la
                              parte (2).  Aplica para la alternativa 1.


ACORDES (1  2  3  4  5  6)                B - BAJO DEL ACORDE
         E  B  G  D  A  E                 X - NO TOCAR CUERDA
                                         (b) - acorde de barra
C(b)     3  5  5  5  3B X

A#       1  3  3  3  1B X

F        1  1  2  3  3 1B

D#       3  4  3  1B X  X

C        0  1  0  2  3B X


*  - es donde cambia la canción de acorde.
©  - corte

Alternativa 4.  Esta es la alternativa más fiel.  Es para tocarla a dos
                  guitarras, se puede hacer para una.  Espero les guste.
                  Abajo un desglose de la pieza, luego la tablatura perse.

     0:00  Entra el teclado.  Me limite básicamente a la guitarra.
     0:01 - 0:02  Entra la batería y comienza la guitarra 1, que hace
           la Melodía principal hasta el segundo 0:18.
     0:06  Entra la segunda guitarra que hace los slides.
     0:09  Entra el bombo de la batería al final de este segundo.  No se
           nada de batería, lo cual también omití.
     0:10  Al principio de este segundo, después del bombo de la batería,
           entra el bajo haciendo una melodía similar a la guitarra 1.

     Tablatura:

           Guitarra 1  (Hace muchos bends, variables en intensidad.  De
              ~0:02     faltar alguno, perdonen, escuchen la canción, ok.)
          0:01-0:02  0:03  0:04      0:05       0:06   0:07     0:08
       E |---|-------|-----|--------|-----------|------|--------|---------|
       B |--------------------------------------|------|--------|---------|
       G |--------------------------------------|------|--------|---------|
       D |--------------------3-3--3-B3-B1------|------------------3-3--3-|
       A |--3-3--1-1b-b3-b3----------------b3----3-3--1-1b-b3-b3----------|
 (6ta) E |----------|--|-----------|-------------|-------|--|-----------|-|
         |         sb sb           sb            |      sb sb          sb |
         | Guitarra 2                            |                        |
         |                                       |                        |
       E |---------------------------------------3s8bf--------------------|
       B |----------------------------------------------------------------|
       G |----------------------------------------------------------------|
       D |----------------------------------------------------------------|
       A |----------------------------------------------------------------|
 (6ta) E |----------------------------------------------------------------|

          b - bend     sb - small bend     bf - full bend


           Guitarra 1
          0:09      0:10    0:11   0:12     0:13    0:14    0:15     0:16
       E |---------|-------|-------|--------|-------|-------|--------|----|
       B |---------|-------|-------|--------|-------|-------|--------|----|
       G |---------|-------|-------|--------|-------|-------|--------|----|
       D |-B3-B1---|-------|-------|-----3-3--3-B3-B1-------|--------|----|
       A |-------b3|---3-3--1-1b-b3-b3----------------b3----3-3--1-1b-b3--|
 (6ta) E |---------|-----------|--|-----------|-------------|-------|--|--|
         |         |          sb sb          sb             |      sb sb  |
         | Guitarra 2                                       |             |
         |         |                                        |             |
       E |---------3/6/3------------------------------------4s11bf--------|
       B |----------------------------------------------------------------|
       G |----------------------------------------------------------------|
       D |----------------------------------------------------------------|
       A |----------------------------------------------------------------|
 (6ta) E |----------------------------------------------------------------|

          / - slide


           Guitarra 1
                 0:17  0:18    0:19
       E |-------|-----|--------|----------|
       B |-------|-----|--------|----------|
       G |-------|-----|--------|----------|
       D |------3-3--3-B3-B1----|----------|
       A |-b3----------------b3-|----------|
 (6ta) E |-----------|----------|----------|
         |          sb          |          |
         | Guitarra 2           |          |
         |                      |          |
       E |---------------------8s11--------|
       B |---------------------------------|
       G |---------------------------------|
       D |-------------------------8s10bf--|
       A |---------------------------------|
 (6ta) E |---------------------------------|

          s - slide


[2]  0:19 - 0:41     Estrofa 1, gritos.


          Estrofa 1.
          *                 *           *  * *
          Cm               C(b)         F D# C
          Cuando el mar me dice:   ?Te hundirás?
               *              *         *   *  *
               C              D#        F   D# C
               Me das tierra firme y puedo cruzar.
          *                *          * *  *
          Cm              C(b)        F D# C
          Cuando el monte dice:  ?No pasa-ras?
               *           *           *  *  *  *
               C          D#           F  D# C  D#
               Tengo tu palabra y eso basta-ráaah.
       D# D      C#    C(b)
          Oooooh!  uoo! uoow! -  gritos.


ACORDES (1  2  3  4  5  6)                B - BAJO DEL ACORDE
         E  B  G  D  A  E                 X - NO TOCAR CUERDA
                                         (b) - acorde de barra
Cm       3  4  5  5  3B X

D        2  3  2  0B X  X

C#       4  6  6  6  4B X


*  - es donde cambia la canción de acorde.
©  - corte


[3]  0:41 - 0:45     Música.  (Punteo o acordes).

          Acordes:     C  D#  C  F  D#

         *        *   *              *    *
         C        D#  C              F   D#
     E |-------------------------------------13------------  (esto lo toca
     B |----------------------------13-15-16----16-15-13b--   el piano.)
     G |------------------------------------------  [Guitarra lo de abajo.]
     D |----------b1----------------1/b3-3/1------
     A |-3-3-3-3----------3-3-3-3-----------------
     E |--------------B3--------------------------  (Bajos)

        b - bend         s - slide        / - slide


[4]  0:45 - 1:11     Gritos, puente, coro.

          *      *   *©  *
          D#     D   C#  G#
          Ooooh! hooh!   -  gritos.
          *                  *          *
          G#                 A#        C(b)
          Eres la fuerza que mueve mi vida  -  puente.

          Coro.
          C                    F
          Eres mi Dios y tu harás   *    *
                                    G(b) C
          Mas allá de lo que pueda imagi-nar
                               *        *
                              Am/G      F
          Mas allá de lo que pueda yo soñaaa - aaár
          F     G        C
          Eres Dios y harás.


ACORDES (1  2  3  4  5  6)                B - BAJO DEL ACORDE
         E  B  G  D  A  E                 X - NO TOCAR CUERDA
                                         (b) - acorde de barra
G#       4  4  5  6  6 4B

Am/G     0  1  2  2  0 3B

G(b)     3  3  4  5  5 3B

G        3  0  0  0  2 3B


*  - es donde cambia la canción de acorde.
©  - corte


[5]  1:11 - 1:15     Música.  (Punteo o acordes).

          Acordes:     Cm  F  D#  F  D#  C

          *    *       *      *            *  *
          Cm   F       D#     F            D# C
     E |--6s8b-8-------------------------------------
     B |-------|--6-6b-8------6fb-6b-6b-6--4--1b-----
     G |-------|--|----|--8fb-----------|--|---------
     D |-------|--|----|----------------|--|---------
     A |-------|--|----|----------------|--|---------
     E |-------|--|----|----------------|--|---------
               sb sb   sb              sb  sb

        b - bend     sb - small bend    fb - full bend
        s - slide


(6)  1:15 - 1:37     Estrofa 2, gritos.

          Estrofa 2.
          *             *          *    *     *
          Cm            C(b)       F    D#    C
          Eres Dios de ayer, eres Dios que esta.
          *             *          *   *  *
          C             D#         F   D# C
          Sabes lo que fue, sabes que vendrá.
          *             *          *  *  *
          Cm           C(b)        F D#  C
          Eres Gran Yo Soy, Tú me sostendrás.
          *           *              *   * *    *
          C           D#             F  D# C    D#
          Tú eres mi Dios, en Tií puedo confiaaaár.

          D       C#    C
          Ooooh!  uooh! hou! -  gritos.


[7]  1:37 - 1:41     Música.  (Punteo o acordes).

          Acordes:     C  D#  C  F  D#

          *        *    *              *    *
          C        D#   C              F    D#
     E |-------------------------------------------
     B |-------------------------------------------
     G |-------------------------------------------
     D |----------1fb-----------------3fb--1fb-----
     A |--3-3-3-3------------3-3-3-3b--------------
     E |--------|------3fb-------------------------
                sb

        b - bend     sb - small bend     fb - full bend


 [8]  1:41 - 3:40     Gritos, puente, coro, estrofa 3, coro.

          *       *    *©  *
          D#      D    C#  G#
          Ooooh!  hooh! - gritos.                 (1:41 - 1:45)
          *                  *         *
          G#                 A#        C(b)
          Eres la fuerza q. mueve mi vida -puente (1:45 - 1:49)


          Coro.                                   (1:45 - 2:25)
             C                   F
          // Eres mi Dios y tu harás *    *
                                     G(b) C
          Mas allá de lo que pueda i-magi-nar
                               *        *
                              Am/G      F
          Mas allá de lo que pueda yo soñaaa - aaár
                        *
          F     G(b)    C(b)
          Eres Dios y harás.  //               // significa dos veces o 2x.


          Estrofa 3.                              (2:25 - 2:47)
              *             *         *     *
          Am  Am/G         Dm         C     F  (este F lo rasgo al revés,
          Mi  vi-da has cambiaadó, salva-adó    solo los bajos y ya).
                   *             *    *   *
          F     Am G             Dm  C/E  F
          Hooyy yo vi-vo por tu gran a-ah-mór
                  *   *     *    *
          F       Dm  C/E   F    C
          Por tu gran aahmóoooorrr!


ACORDES (1  2  3  4  5  6)                B - BAJO DEL ACORDE
         E  B  G  D  A  E                 X - NO TOCAR CUERDA
                                         (b) - acorde de barra
Am       0  1  2  2  0B X

Dm       1  3  2  0B X  X

C/E      0  1  0  2  3 0B


*  - es donde cambia la canción de acorde.
©  - corte


Estas partes de la sección (8) que vienen ahora, usan una técnica parecida
al palm mute.  Les sugiero escuchen el rasgueo de la canción detenidamente,
repítanlo hasta tenerlo, el truco es no presionar demasiado las cuerdas con
la mano que pisa, hasta lograr el efecto correcto.  El efecto es percusivo,
semejante al PM, enmudeciendo las cuerdas.


          Coro. (Marcos y el público).                  (2:48 - 3:06)

             Mr -  Marcos       (Esta parte se hace como si fuera
           Púb. -  Público       Palm mute, ya que se usa un efecto.)
                                           PM - palm mute.

                   Cadd11              F
            Mr  -  Eres mi Dios y tu harás   *    *
                                             G(b) Cadd11
           Púb. -  Más allá de lo que pueda imaginar
                   Cadd11              F
            Mr  -  Eres mi Dios y tu harás
                                  *     *
                                  G(b)  Cadd11
      Mr y Púb. -  Eres mi Dios y tu harás


ACORDES (1  2  3  4  5  6)                B - BAJO DEL ACORDE
         E  B  G  D  A  E                 X - NO TOCAR CUERDA
                                         (b) - acorde de barra
Cadd11   1  1  0  2  3B X


          Mr  -  Coro.                                  (3:06 - 3:40)

          Cadd11              F
          Eres mi Dios y tu harás    *   *
                                     G(b)Cadd11
          Más allá de lo que pueda imagi-nar
                              *         *
                             Am/G       F
          Más allá de lo que pueda yo soñaaa - aaár        End of PM.
                        *
          F     G       C
          Eres Dios y harás.


          C                   F
          Eres mi Dios y tu harás   *    *
                                    G(b) C
          Más allá de lo que pueda imagi-nar
                              *         *
                             Am/G       F
          Más allá de lo que pueda yo soñaaa - aaár
                        *
          F     G       C
          Eres Dios y harás.


          El efecto previo acaba en esta sección en donde dice End of PM.


[9]  3:40 - 3:56   Música(Solo).  El solo esta lo mas exacto posible.

        Por acordes:  C F Am G Am Am/G F G

         C                                          F
     E |-----------------------------------------------3-5fb--3----7bf---|
     B |-5-5-5~~ ~ 5-5-5~~ ~ 5-5-5~s6s5~~ 5-5-5~~ ~ 5b----------5b-------|
     G |-------5~~ ------5~~ ---------5~~ ------5~~ ---------------------|
     D |-----------------------------------------------------------------|
     A |-----------------------------------------------------------------|
     E |-----------------------------------------------|-----------------|
                                                      sb

                                      Am                      G
     E |-5-3-8bf----------12bf-10b----15bf-13-12-12bf-15b-12b------------|
     B |----------10b-13b----------13-------------------------15-13-15b~~|
     G |-----------------------------------------------------------------|
     D |-----------------------------------------------------------------|
     A |-----------------------------------------------------------------|
     E |---------------------------|-------------------------------------|
                                  sb

        b - bend     sb - small bend     fb - full bend
        s - slide     ~ - vibrato


                            Am             Am/G            F
     E |--8-7----8-7--------8-7-8----8-7-8---8-7-8---8-7-8---8-7-8-------|
     B |------10-----10--10-------10-------8-------8-------6-------------|
     G |-----------------------------------------------------------------|
     D |-----------------------------------------------------------------|
     A |-----------------------------------------------------------------|
     E |-------------|---------------------------------------------------|
                    sb


                        G            Bien rápido.
     E |--3--------------------------5bf-3----------|
     B |----6-5-3-6-5-3---5-3--------------6b-5~~ --|
     G |----------------5-----5-4-5b----------------|
     D |--------------------------------------------|
     A |--------------------------------------------|
     E |--------------------------------------------|

        b - bend         s - slide         / - slide


[10]  3:56 - 4:49     Solo, alabanzas, coro.

          El solo continúa desde la parte nueve, sin embargo, podremos
          continuar mediante acordes, ok.


          Alabanzas:                                    (3:56 - 4:32)


                                                       Alabanza(3:56-4:14):
  C                    F             Am    G          F             G     C
  A Dioos seaah laa glooohria y laah hoooo-ooh-ohnraa hoooy paahrah siempre


                              Alabanza y coro(1ra vez) (juntos)(4:14-4:32):
  C                     F              Am      G        F          G  C
  A Dioos seaah laa gloooohriaa y laah hoooo-ooh-ohnraa hooooooooooyyy

  Eres.. tu harás | Mas allá... imaginar | Mas de.. soñaaahar | Eres Dios
                                                                 y harás.


          Coro (2x).                                    (4:14 - 4:49)

 1ra vez (4:14 - 4:32).  Ya este fue ejecutado previamente.
2nda vez (4:32 - 4:49)   Aquí abajo el que falta.


          C                   F
          Eres mi Dios y tu harás                       (4:32 - 4:49)
                                    G    C
          Más allá de lo que pueda imagi-nar
                              Am/G      F
          Mas allá de lo que pueda yo soñaaa - aaár
          F    G        C
          Eres Dios y harás.


[11]  4:49 - 4:54     Música.  (Punteo o acordes).

         Acordes:     G#  A#  C

         *                *           *
         G#               A#          C
     E |---------------3b-------------3b----|
     B |-4b---3b-4b-6b----6bf-3b-4-6b-------|
     G |----5-------------------------------|
     D |------------------------------------|
     A |------------------------------------|
     E |----|-------------------------------|
           sb

        b - bend     sb - small bend     bf - full bend


[12]  4:54 - 5:11     Coro (outro).  El tono se oye grave.

          C                   F
          Eres mi Dios y tu harás
                                    G    C
          Más allá de lo que pueda imagi-nar
                              Am/G      F
          Mas allá de lo que pueda yo soñaaa - aaár
          F    G        C
          Eres Dios y harás.


[13]  5:11 - 5:50     Música.  (Punteo o acordes).

         Acordes:     G#  A#  C

         *             *                 *
         G#            A#                C (sigue en C).
     E |----------3bf--8b--6b--------------------------------|
     B |-4b---3-4--------------8b---4b---6b---8fb------------|
     G |----5----------------------------------|-------------|
     D |---------------------------------------|-------------|
     A |---------------------------------------|-------------|
     E |----|---|------------------------------|-------------|
           sb  sb                              5:18


         *
         C (en C hasta el fin, acaba con un rasgado fuerte).
     E |-----------------------------------------------------|
     B |-----------------------------------------------------|
     G |---DESDE-5:18,-NO-PONDRE-EL-RESTO-DEL-SOLO,----------|
     D |---------------NO-TIENE-SENTIDO-HACERLO.-------------|
     A |-----------------------------------------------------|
     E |-----------------------------------------------------|

        b - bend     sb - small bend     bf - full bend


[14]  5:50 - 6:04     Aplausos, fin.  Parte sin música.

La vida a la verdad no se que es, para que es y quien tiene derecho
a vivirla feliz.  Quod Erat Demostratum.  Casi dos meses haciéndote
esto Debbie.


Anejo:

Partes por terminar:  Solo (13), lo deje culminado hasta 5:18.

Partes por revisar:   [10] y (12).

Todo esta acabado y exacto, a excepto el reguero final instrumental.

La secuencia de acordes en [13] esta exacta, el punteo esta hasta
5:18, el resto del punteo no lo voy a poner.  Hasta 5:18 considero
que la canción esta legalmente completa.  Después de 5:18 no lo
tabule, no tiene sentido.  Quien desee ponerlo, lo reto a que lo
haga y lo ponga en tab.


 Aquí el bosquejo de la canción resumido:

 [1]    0:00 - 0:19     Intro:  Música
 [2]    0:19 - 0:41     Estrofa 1, gritos.
 (3)    0:41 - 0:45     Interludio 1
 [4]    0:45 - 1:11     Gritos, puente, coro.
 (5)    1:11 - 1:15     Interludio 2
 (6)    1:11 - 1:37     Estrofa 2, gritos.
 (7)    1:37 - 1:41     Interludio 3
 [8]    1:41 - 3:40     Gritos, puente, //coro//, estrofa 3, coro PM.
                                                             Mr y Púb.
 (9)    3:40 - 3:56     Solo
(10)    3:56 - 4:49     Alabanzas, coro.
(11)    4:49 - 4:54     Interludio 4
(12)    4:54 - 5:11     Coro:  Outro.
(13)    5:11 - 5:50     Outro:  Música.
(14)    5:11 - 5:50     Aplausos, fin.
Suggest correction
Give kudos to tab author, rate the tab!
1 2 3 4 5
comments
print report bad tab
guest
You may want to rate the tab now too:
select rating
Wanna post a correction for this tab? Suggest correction