Oops, an error
Loading. Please wait.

Tú Harás Tab

version 3
version 3

Whole song

Interactive

100 views 3 this week
no commentswrite comment
1 2 3 4 5
3 more votes to show rating
add to favorites
launch autoscroll
font size
0
reset
how to read this tab
guitar tuner
×
Best way to learn
"Tú Harás"
Autoscroll
slow
fast
+/-
esc
set tempo
stop
  3:40 - 3:56   Música(Solo).  El solo esta lo mas exacto posible.

       C                                             F
   E |-----------------------------------------------------------------|
   B |-----------------------------------8-10~-8--10/12~-10-8-10/13bf--|
   G |9~9-----9~9-----9s10s9-----9~9---9--------9----------------------|
   D |---10~10---10~10------10~10---10---------------------------------|
   A |-----------------------------------------------------------------|
   E |-----------------------------------------------------------------|

        G                     Am                             G
   E |---------12bf-10b----12/15bf--13-12-12bf-15b-12b-----------------|
   B |-10b-13b----------13-----------------------------15-13-15b~~-----|
   G |-----------------------------------------------------------------|
   D |-----------------------------------------------------------------|
   A |-----------------------------------------------------------------|
   E |-----------------------------------------------------------------|

     Rapidisima esta parte      Am                 Am/G
E |----------------------------|----------------------------------------|
B |-12-13-12-------------------|--13-12-13--13-12-13--13-12-13--13-12-13|
G |----------14-12-------------|14--------14--------12--------12--------|
D |----------------15-14-12-10-|----------------------------------------|
A |----------------------------|----------------------------------------|
E |----------------------------|----------------------------------------|

        F                      G Demasiado rápido.
   E |-----------------------|----------------------------------|
   B |-------------9-8-11-9--|---------------8-10-8------8/13~~-|
   G |--10-9-12-10-----------|-10-9-7-7-9-10--------10-9--------|
   D |-----------------------|----------------------------------|
   A |-----------------------|----------------------------------|
   E |-----------------------|----------------------------------|
Suggest correction
Give kudos to tab author, rate the tab!
1 2 3 4 5
comments
print report bad tab
guest
You may want to rate the tab now too:
select rating
Wanna post a correction for this tab? Suggest correction