Oops, an error
Loading. Please wait.

Venció Bass Tab

version 1
version 1

Whole song

Interactive

175 views 3 this week
no commentswrite comment
1 2 3 4 5
3 more votes to show rating
add to favorites
launch autoscroll
font size
0
reset
guitar tuner
×
Best way to learn
"Venció"
Autoscroll
slow
fast
+/-
esc
set tempo
stop
Afinación: G D A E

  Intro
G |-----------------------------------------------------------------
D |----------------4--2--------------4--2--------------4--2---------
A |-----4--4?-2h4---------4--4?-2h4---------4--4?-2h4---------4?-4--
E |-/\--------------------------------------------------------------

G |----------------------------------------------------------------|
D |-----4--2--------------4--2-------------4--2--------------4--2--|
A |2h4---------4--4?-2h4---------4?-4-?2h4--------4--4?-2h4-------4|
E |----------------------------------------------------------------|

  (0:21) Puente de rap
G |-------------------------------------------------------------------
D |-------------------2h4-2-------------------------2-----------------
A |4--4---2---2h4------------4--4---2---2h4-------2----4--4---2---2h4-
E |---------4-------------------------4-------2-4---------------4-----

G |-------------------------------------------------------------------
D |----2h4-2-------------------------2--------------------2h4-2-------
A |-----------4--4---2---2h4-------2----4--4---2---2h4-----------4?-4-
E |--------------------4-------2-4---------------4--------------------

G |------------------------------------------------------------------|
D |------------------2---------------------2h4-2---------------------|
A |--2---2h4-------2----4--4---2---2h4------------4--4---2---2h4-----|
E |----4-------2-4---------------4-------------------------4------/\-|

  (0:51) Puente de coros
G |------------------------------------------------|
D |------------2---2-2--4-4--4-2-4--6--4-6-6-4-2---| Esta figura se
A |-4-4--4-2-4---4---------------------------------| repite 2 veces
E |------------------------------------------------|

   (1:02)
G |---------------------------------------------------|
D |------------2---2-2-------------1--2-2--4-4--6-6---|
A |-4-4--4-2-4---4-----------1-2-4--------------------|
E |----------------------2-4--------------------------|

   (1:10) Coro 1
G |-------------------------------------------------------------------
D |---------2--4-4--2---------2--4-4--2---------2--4-4--2---------2--4
A |------4-------------4-2-4-------------4-2-4-------------4-2-4------
E |--\----------------------------------------------------------------

G |-------------------------------------------------------------------
D |-4--2---------2--4-4--2---------2--4-4--2---------2--4-4--2--------
A |-------4-2-4-------------4-2-4-------------4-2-4-------------4-2-4-
E |-------------------------------------------------------------------

G |-------------------------------------------------------------------
D |-2--4-4--2---------2--4-4--2---------2--4-4--2---------2?-4-4?-2---
A |------------4-2-4-------------4-2-4-------------4-2-4--------------
E |-------------------------------------------------------------------
G |-------------------------------------------------------------------
D |-------2--4-4--2---------2--4-4--2---------2--4-4--2---------2?-4-4
A |4-2-4-------------4-2-4-------------4-2-4-------------4-2-4--------
E |-------------------------------------------------------------------

G |-----------------------------|
D |-2--------2--4-4--2----------|
A |---4-2-4-------------4-2-----|
E |-----------------------------|

  (1:38) Puente  (Solo de bajo)
G |---------J6X--------JX-JX-------J6X--------J6X--------JX-JX--------
D |-------------------------------------------------------------------
A |--P4X--------P4X----------P7--------P4X--------P4X----------P7-----
E |-------------------------------------------------------------------

G |--J6X--------J6X--------JX-JX-------J6X--------J6X--------JX-JX----
D |-------------------------------------------------------------------
A |------P4X--------P4X----------P7--------P4X--------P4X----------P7-
E |-------------------------------------------------------------------

G |--J6X--------J6X--------JX-JX-------J6X--------J6X--------JX-JX----
D |-------------------------------------------------------------------
A |------P4X--------P4X----------P7--------P4X--------P4X----------P7-
E |-------------------------------------------------------------------

G |--J6X--------J6X--------JX-JX-------J6X--------J6X--------JX-JX----
D |-------------------------------------------------------------------
A |------P4X--------P4X----------P7--------P4X--------P4X----------P7-
E |-------------------------------------------------------------------
  (1:52)
G |----J6---JX-JX-------JX-JX-J6--JX-JX-------JX-JX-J6--JX-JX-------JX
D |-------------------------------------------------------------------
A |---------------P7--------------------P7--------------------P7------
E |-------------------------------------------------------------------

G |-JX-J6--JX-JX-------JX-JX-J6--JX-JX-------J6-J6-J6--JX-JX--------JX
D |-------------------------------------------------------------------
A |--------------P7--------------------P7--------------------P7-------
E |-------------------------------------------------------------------

G |-JX-J6--JX-JX------6/18---16-16--15-15--14-14\---|
D |-------------------------------------------------|
A |--------------P7---------------------------------|
E |-------------------------------------------------|

  (2:06) Coro 2
G |-----------------------------------------------------------------
D |------2--4-4--2---------2--4-4--2---------2--4-4--2---------2?-4-
A |---4-------------4-2-4-------------4-2-4-------------4-2-4-------
E |-----------------------------------------------------------------

G |-------------------------------------------------------------------
D |-4--2---------2--4-4--2---------2--4-4--2---------2--4-4--2--------
A |-------4-2-4-------------4-2-4-------------4-2-4-------------4-2-4-
E |-------------------------------------------------------------------

G |-------------------------------------------------------------------
D |-2--4-4--2---------2--4-4--2---------2--4-4--2---------2?-4-4?-2---
A |------------4-2-4-------------4-2-4-------------4-2-4--------------
E |-------------------------------------------------------------------
G |-------------------------------------------------------------------
D |---------2--4-4--2---------2--4-4--2---------2?-4-4--2---------2--4
A |--4-2-4-------------4-2-4-------------4-2-4-------------4-2-4------
E |-------------------------------------------------------------------
                           (2:35) Final
G |------------------------|------------------------------------------
D |-4--2---------2---4-4-6-|------------------------------------------
A |-------4-2--4-----------|--4--2----1-1--2----4--2----1-1--2---4-4-4
E |------------------------|------------------------------------------

G |---------------------------------------------------|
D |---------------------------------------------------|
A |-4--4-4-4-4-4-4-4-4-4-4-4-4-------------------4\---|
E |---------------------------------------------------|
Suggest correction
Give kudos to tab author, rate the tab!
1 2 3 4 5
comments
print report bad tab
guest
You may want to rate the tab now too:
select rating
Wanna post a correction for this tab? Suggest correction