Oops, an error
Loading. Please wait.

Vivifícame Bass

4 views 1 this week
no commentswrite comment
1 2 3 4 5
3 more votes to show rating
add to favorites
×
Save as Personal and add changes to this tab that will be seen only by you. Learn more ›
×
You can save this tab as Personal to edit and correct it or add notes. All changes will be seen only by you. Learn more »
save as personal
new!
launch autoscroll
font size
0
reset
guitar tuner
Autoscroll
slow
fast
+/-
esc
set tempo
stop
G-----------------------------------------------------------------
D------------------------5----------------------------------------
A----------------3--5-----------3-5-5--------5---3---5----3-------
E--------3--3-----------------------------------------------3?3---


G-----------------------------------------------------------------
D----------------5------------------------------------------------
A--------3--5-----------3-5-5--------5---3---5----3---------------
E-------------------------------------------------------6-6-------

                    Coro:
G-----------------------------------------------------------------
D------------------------------------------5----------------------
A------------5--5---5-5-----------3--5----------3-5-5-----5-3-5-3-
E--6-6--------------------3--3------------------------------------


G-----------------------------------------------------------------
D---------------5-------------------------------------------------
A--------3---5--------3---5--5--5--5--5---------------------------
E---3-3-----------------------------------------------------------

Se repite dos veces
Este es el intermedio sube 1/2 tono a  lab menor:

G-----------------------------------------------------------------
D-----------------------------------------------------------------
A-------------------6-6----6-6----4-4-----4-4------6-6-----6-6----
E-----4-4----4-4--------------------------------------------------

G------------------------------------------------------------------------
D-------------------------------------------------------------3-5----5-7-
A-------------------6-6----6-6----4-4-----4-4------6-6------5------7-----
E-----4-4----4-4---------------------------------------------------------


Luego sube otro 1/2 tono  a la menor hasta finalizar????..


Espero que le sirva para que la pueda tocar en sus eventos, hasta pronto y
 un saludo a todos los colaboradores de atame.
Suggest correction
Give kudos to tab author, rate the tab!
1 2 3 4 5
comments
print report bad tab
guest
Wanna post a correction for this tab? Suggest correction