Oops, an error
Loading. Please wait.

Corazón De Mimbre Tab

version 1
version 1

Whole song

794 views 6 this week
no commentswrite comment
1 2 3 4 5
3 more votes to show rating
add to favorites
launch autoscroll
font size
0
reset
how to read this tab
guitar tuner
Autoscroll
slow
fast
+/-
esc
set tempo
stop
Help us to improve Ultimate-Guitar.com Take our survey!
×
bueno aca les dejo otro SOLO de guitarra de marea espero
que los disfruten tanto como yo cuando lo saque
me llegaron como 20 pedidos de sacar este solo y me puse
de cabeza a sacarlo es un poco complico pero ak les va


1|-------------------------------------------------------------
2|----------------------------------5-8---5-8--5-8-------------
3|-------5---5-5-----5---55/7vvv--7v-----7----7---7-5-7--------
4|--5/7----7-----5/7---7---------------------------------------
5|-------------------------------------------------------------
6|-------------------------------------------------------------


1|---------------------------------------------------------------------
2|---------------------------------------------------------------------
3|-----5--------------------------------------------------5------------
4|-5/7--7-5-7-5-7-5--5-------------------------5--5-7---7---------------
5|------------------7---7-6-5------------5--5-7--7----------------------
6|-----------------------------8--5--5-8-8-----------------------------

1|----------------1010v----------------------------------------------
2|5588101012121313--------17-20h17---------------------------------------
3|---------------------------------19-17-19h17----------------------------
4|---------------------------------------------19---17p19-17p19-)---------
5|-----------------------------------------------(19-----19-------- x3----
6|------------------------------------------------se repite ese dibujo----


1|---------------------------------------------------------17--------------
2|-------------------------------------------------17-19-17----------------
3|------------------------------------------------------------17-19-17-15--
4|-------------------------------------------------------------------------
5|17-19-17-19------------------------------19-21-19------------------------
6|------------20-17-20-17-15-17-15-17-20-21--------------------------------


1|-------------------------------------------------------------------17v17v
2|-----------------------------------------------------------17-19-17------
3|-----------------------------------------14-1515-17-17-17vvv-------------
4|-15-17-15-13-1212--/1313--/1515-1717-1919--------------------------------
5|-------------------------------------------------------------------------
6|-------------------------------------------------------------------------


3:59 la parte rapad ligada
1|--------------------------------17-20-17--17------------------------------
2|-17-20-19 (x7 o 9 contalas vos )------------20-19-17----------------------
3|-----------------------------------------------------19-17-15-19vvvvvvvvvv
5|--------------------------------------------------------------------------
6|--------------------------------------------------------------------------


Y esta es la parte lenta  efecto violin y no estoy seguro que sea asi
porque varia mucho el tono de cada nota
1|---------------------------------------------------------
2|---------------------------------------------------------
3|--/5-7-7/9-9/10-9-7-5/7----------------------------------
4|---------------------------------------------------------
5|---------------------------------------------------------
6|---------------------------------------------------------

buesno espero q disfruten el solo este ya es el solo Nº10 de marea
ya estoy para ir a tocar en vivo con marea... tengo casi todos los solos
de la banda califique en tab y subo los otros pedidos
la majada acordes ya subi el solo hace unos dias.....
saludos LEO DELMAS desde Mendoza Argentina, dedicado a R_TA
mi correo o face    cualquier duda o petición
Suggest correction
Give kudos to tab author, rate the tab!
1 2 3 4 5
comments
print report bad tab
guest
You may want to rate the tab now too:
select rating
Wanna post a correction for this tab? Suggest correction