Oops, an error
Loading. Please wait.

Corazón De Mimbre Tab

version 2
version 2

Whole song

746 views 27 this week
no commentswrite comment
1 2 3 4 5
3 more votes to show rating
add to favorites
launch autoscroll
font size
0
reset
how to read this tab
guitar tuner
×
Best way to learn
"Corazón De Mimbre"
Autoscroll
slow
fast
+/-
esc
set tempo
stop
Esta canción viene tocada por dos guitarras más el bajo haciendo
las notas fundamentales de cada acorde. Excepto en la 
introducción, las dos guitarras realizarán lo mismo.


Introducción por guitarra 1:

e|----------------------------------------------------------------------|
B|----------0h1p0-------------1------------3----------------0-----------|
G|---2----2-------2---------2---2--------4----4--------0-------0--------|
D|------2-----------------3------------5-------------2----2-------------|
A|---0------------------------------------------------------------------|
E|---------------------1-------------3--------------0-------------------|


e|------------5------------------7--------------------------------------|
B|--------------1-------------------3-------------0h1p0-----------------|
G|--------2-------2----------4--------4----2----2--------2--2-----------|
D|------3---3--------------5---5--------------2-------------------------|
A|-----------------------------------------0----------------0-----------|
E|---1------------------3-----------------------------------------------|


Introducción por guitarra 2:

Esta introducción de guitarra 2 me la he inventado así que no 
la comparéis con la original porque no tiene nada que ver pero 
creo que queda bastante bien.

       [ch]A m       [ch]F[/ch] M     SOL[/ch] M      [ch]E[/ch] m 
e|-----5&----------1&--------3&--------0&-------------|
B|-------5&----------1&--------3&--------1&-----------|
G|----------------------------------------------------|
D|----------------------------------------------------|
A|----------------------------------------------------|
E|----------------------------------------------------|


&.-Significa varias veces hasta cambiar al siguiente acorde.
Se va entrando cada vez que cambia el acorde.


La introducción de ambas guitarras dura hasta el símbolo &


         [ch]A m            [ch]F[/ch]            SOL[/ch]                   [ch]E[/ch]
Quieto parao, no te arrimes ya son demasiados abriles
              [ch]F              [ch]G[/ch]                  LA[/ch] m
Para tu amanecer desbocao, mejor que me olvides.
  [ch]A m              [ch]F[/ch]            SOL[/ch]                   [ch]E[/ch]
Yo me quedo aquí a tender mi pena a mi sol
[ch]F                    [ch]G[/ch]                         LA[/ch] m
En la cuerda de tender desolación
[ch]A m              [ch]F[/ch]            SOL[/ch]                   [ch]E[/ch]
Luego empezaré a coser 
Suggest correction
Give kudos to tab author, rate the tab!
1 2 3 4 5
comments
print report bad tab
guest
You may want to rate the tab now too:
select rating
Wanna post a correction for this tab? Suggest correction