Oops, an error
Loading. Please wait.

Corazón De Mimbre Tab

version 3
version 3

Whole song

398 views 1 this week
no commentswrite comment
1 2 3 4 5
3 more votes to show rating
add to favorites
launch autoscroll
font size
0
reset
how to read this tab
guitar tuner
×
Best way to learn
"Corazón De Mimbre"
Autoscroll
slow
fast
+/-
esc
set tempo
stop
--------------------
 CoRaZóN dE MiMBrE
--------------------

    -Introducción y primeros versos:


                    Am                 F                G
 Guitarra I:    e|---------------------------------------------------
                B|---------0h1p0-------------1----------------3------
                G|--2----2-------2---------2-----2---4------4---4----
                D|-----2-----------0-----3---------3------5-------2--  [...] (continúa abajo)
                A|--0------------------------------------------------
                E|---------------------1----------------3------------

 Guitarra II:   e|---------------------1-3-----------------------------
                B|----------0----1-----------0-1---1-3--3--1--0--1-3---
                G|--2-----2--------2-------2-----2---------------------
                D|----------------------------------------------------- [...] (ver abajo)
                A|-----------------------------------------------------
                E|-----------------------------------------------------


                  E             F                G                Am
... Guitarra I  ------------------------5----------------7--------------------------0--
                ----------0----------1----1-----------3----3--------------0h1p0-----1--
                ------1-----4------2--------2-------4--------4----2-----2-------2---2--
                ----2---2-------3--------------3/5--------------------2-------------2--
                --------------------------------------------------0-----------------0--
                --0--------------------------------------------------------------------


..Guitarra II:  ---0-----------1h3---------------------------------5-------5-------0--
                ------1--0-1------1----0---1--3-3-1--0--1--------1--1----3---3-----1--
                ---------------2----2----2-----------------------2----2--4----4----2--
                ----------------------------------------------------------------------
                ----------------------------------------------------------------------
                ----------------------------------------------------------------------


     -Versos posteriores (distorsión):

 Y en cuanto acabó...                  De zurcir las heridas..
             |----------------------------------------------------------
             |----------------------------------------------------------
             |----------------------------------------------------------
             |---------------5---------------5-5--5-5-5--7-7--7-7-7-----
             |---7--7--5--7--3--5-7--7-7-7---3-3--3-3-3--5-5--5-5-5-----
             |---5--5--3--5-----3-5--5-5-5------------------------------


     -Estribillo:

   Q coño le pasará..     pm________      pm_________
 G|--------------------5---------------7-----------------
 D|--3-------5---------5--5-5-5-5-5-5--7--7-7-7-7-7-7----
 A|--3-------5---------3--3-3-3-3-3-3--5--5-5-5-5-5-5----
 E|--1-------3-------------------------------------------

     -Parte lenta del final:

  e|---------------------------------------
  B|---------------------------------------
  G|----------------------------0-------0--
  D|--------7----------7------2-------4----
  A|---0--7-------0--7-----3-------5-------
  E|--5--------5---------------------------


    ...... y poco más. Lo guapo q tiene esta canción (in my viewpoint) es la intro. Confirmo
 q me he dejado los oídos durante un rato relargo para intentar distinguir las 2 guitarras,
 por lo menos valoradlo no? q quema q no es normal. En realidad, interpretar la transcripción
 q he hecho de la intro es casi imposible, ya q fijo q yo la escucho como me da la gana (lo
 siento, hago lo q puedooooooo) asi q... si teneis cualquier duda u os volvéis locos sacando
 la canción: hamlet_to_fakie@

 y si eso ya paso algun audio casero con las 2 guitarras por separado va?
 Todo sea por salvar a la humanidad ¬¬. adeuuuuuuuuuuus!
Suggest correction
Give kudos to tab author, rate the tab!
1 2 3 4 5
comments
print report bad tab
guest
You may want to rate the tab now too:
select rating
Wanna post a correction for this tab? Suggest correction